  0
SECTION
  2
HEADER
  9
$ACADVER
  1
AC1032
  9
$ACADMAINTVER
 90
      327
  9
$DWGCODEPAGE
  3
ANSI_1252
  9
$REQUIREDVERSIONS
160
                 0
  9
$INSBASE
 10
0.0
 20
0.0
 30
0.0
  9
$EXTMIN
 10
1.000000000000000E+20
 20
1.000000000000000E+20
 30
1.000000000000000E+20
  9
$EXTMAX
 10
-1.000000000000000E+20
 20
-1.000000000000000E+20
 30
-1.000000000000000E+20
  9
$LIMMIN
 10
0.0
 20
0.0
  9
$LIMMAX
 10
12.0
 20
9.0
  9
$ORTHOMODE
 70
     0
  9
$REGENMODE
 70
     1
  9
$FILLMODE
 70
     1
  9
$QTEXTMODE
 70
     0
  9
$MIRRTEXT
 70
     0
  9
$LTSCALE
 40
1.0
  9
$ATTMODE
 70
     1
  9
$TEXTSIZE
 40
0.2
  9
$TRACEWID
 40
0.05
  9
$TEXTSTYLE
  7
Standard
  9
$CLAYER
  8
0
  9
$CELTYPE
  6
ByLayer
  9
$CECOLOR
 62
   256
  9
$CELTSCALE
 40
1.0
  9
$DISPSILH
 70
     0
  9
$DIMSCALE
 40
1.0
  9
$DIMASZ
 40
0.18
  9
$DIMEXO
 40
0.0625
  9
$DIMDLI
 40
0.38
  9
$DIMRND
 40
0.0
  9
$DIMDLE
 40
0.0
  9
$DIMEXE
 40
0.18
  9
$DIMTP
 40
0.0
  9
$DIMTM
 40
0.0
  9
$DIMTXT
 40
0.18
  9
$DIMCEN
 40
0.09
  9
$DIMTSZ
 40
0.0
  9
$DIMTOL
 70
     0
  9
$DIMLIM
 70
     0
  9
$DIMTIH
 70
     1
  9
$DIMTOH
 70
     1
  9
$DIMSE1
 70
     0
  9
$DIMSE2
 70
     0
  9
$DIMTAD
 70
     0
  9
$DIMZIN
 70
     0
  9
$DIMBLK
  1

  9
$DIMASO
 70
     1
  9
$DIMSHO
 70
     1
  9
$DIMPOST
  1

  9
$DIMAPOST
  1

  9
$DIMALT
 70
     0
  9
$DIMALTD
 70
     2
  9
$DIMALTF
 40
25.4
  9
$DIMLFAC
 40
1.0
  9
$DIMTOFL
 70
     0
  9
$DIMTVP
 40
0.0
  9
$DIMTIX
 70
     0
  9
$DIMSOXD
 70
     0
  9
$DIMSAH
 70
     0
  9
$DIMBLK1
  1

  9
$DIMBLK2
  1

  9
$DIMSTYLE
  2
Standard
  9
$DIMCLRD
 70
     0
  9
$DIMCLRE
 70
     0
  9
$DIMCLRT
 70
     0
  9
$DIMTFAC
 40
1.0
  9
$DIMGAP
 40
0.09
  9
$DIMJUST
 70
     0
  9
$DIMSD1
 70
     0
  9
$DIMSD2
 70
     0
  9
$DIMTOLJ
 70
     1
  9
$DIMTZIN
 70
     0
  9
$DIMALTZ
 70
     0
  9
$DIMALTTZ
 70
     0
  9
$DIMUPT
 70
     0
  9
$DIMDEC
 70
     4
  9
$DIMTDEC
 70
     4
  9
$DIMALTU
 70
     2
  9
$DIMALTTD
 70
     2
  9
$DIMTXSTY
  7
Standard
  9
$DIMAUNIT
 70
     0
  9
$DIMADEC
 70
     0
  9
$DIMALTRND
 40
0.0
  9
$DIMAZIN
 70
     0
  9
$DIMDSEP
 70
    46
  9
$DIMATFIT
 70
     3
  9
$DIMFRAC
 70
     0
  9
$DIMLDRBLK
  1

  9
$DIMLUNIT
 70
     2
  9
$DIMLWD
 70
    -2
  9
$DIMLWE
 70
    -2
  9
$DIMTMOVE
 70
     0
  9
$DIMFXL
 40
1.0
  9
$DIMFXLON
 70
     0
  9
$DIMJOGANG
 40
0.7853981633974483
  9
$DIMTFILL
 70
     0
  9
$DIMTFILLCLR
 70
     0
  9
$DIMARCSYM
 70
     0
  9
$DIMLTYPE
  6

  9
$DIMLTEX1
  6

  9
$DIMLTEX2
  6

  9
$DIMTXTDIRECTION
 70
     0
  9
$LUNITS
 70
     2
  9
$LUPREC
 70
     4
  9
$SKETCHINC
 40
0.1
  9
$FILLETRAD
 40
0.0
  9
$AUNITS
 70
     0
  9
$AUPREC
 70
     0
  9
$MENU
  1
.
  9
$ELEVATION
 40
0.0
  9
$PELEVATION
 40
0.0
  9
$THICKNESS
 40
0.0
  9
$LIMCHECK
 70
     0
  9
$CHAMFERA
 40
0.0
  9
$CHAMFERB
 40
0.0
  9
$CHAMFERC
 40
0.0
  9
$CHAMFERD
 40
0.0
  9
$SKPOLY
 70
     0
  9
$TDCREATE
 40
2460543.366076389
  9
$TDUCREATE
 40
2460543.324409723
  9
$TDUPDATE
 40
2460543.366076389
  9
$TDUUPDATE
 40
2460543.324409723
  9
$TDINDWG
 40
0.0000000000
  9
$TDUSRTIMER
 40
0.0000000000
  9
$USRTIMER
 70
     1
  9
$ANGBASE
 50
0.0
  9
$ANGDIR
 70
     0
  9
$PDMODE
 70
     0
  9
$PDSIZE
 40
0.0
  9
$PLINEWID
 40
0.0
  9
$SPLFRAME
 70
     0
  9
$SPLINETYPE
 70
     6
  9
$SPLINESEGS
 70
     8
  9
$HANDSEED
  5
324
  9
$SURFTAB1
 70
     6
  9
$SURFTAB2
 70
     6
  9
$SURFTYPE
 70
     6
  9
$SURFU
 70
     6
  9
$SURFV
 70
     6
  9
$UCSBASE
  2

  9
$UCSNAME
  2

  9
$UCSORG
 10
0.0
 20
0.0
 30
0.0
  9
$UCSXDIR
 10
1.0
 20
0.0
 30
0.0
  9
$UCSYDIR
 10
0.0
 20
1.0
 30
0.0
  9
$UCSORTHOREF
  2

  9
$UCSORTHOVIEW
 70
     0
  9
$UCSORGTOP
 10
0.0
 20
0.0
 30
0.0
  9
$UCSORGBOTTOM
 10
0.0
 20
0.0
 30
0.0
  9
$UCSORGLEFT
 10
0.0
 20
0.0
 30
0.0
  9
$UCSORGRIGHT
 10
0.0
 20
0.0
 30
0.0
  9
$UCSORGFRONT
 10
0.0
 20
0.0
 30
0.0
  9
$UCSORGBACK
 10
0.0
 20
0.0
 30
0.0
  9
$PUCSBASE
  2

  9
$PUCSNAME
  2

  9
$PUCSORG
 10
0.0
 20
0.0
 30
0.0
  9
$PUCSXDIR
 10
1.0
 20
0.0
 30
0.0
  9
$PUCSYDIR
 10
0.0
 20
1.0
 30
0.0
  9
$PUCSORTHOREF
  2

  9
$PUCSORTHOVIEW
 70
     0
  9
$PUCSORGTOP
 10
0.0
 20
0.0
 30
0.0
  9
$PUCSORGBOTTOM
 10
0.0
 20
0.0
 30
0.0
  9
$PUCSORGLEFT
 10
0.0
 20
0.0
 30
0.0
  9
$PUCSORGRIGHT
 10
0.0
 20
0.0
 30
0.0
  9
$PUCSORGFRONT
 10
0.0
 20
0.0
 30
0.0
  9
$PUCSORGBACK
 10
0.0
 20
0.0
 30
0.0
  9
$USERI1
 70
     0
  9
$USERI2
 70
     0
  9
$USERI3
 70
     0
  9
$USERI4
 70
     0
  9
$USERI5
 70
     0
  9
$USERR1
 40
0.0
  9
$USERR2
 40
0.0
  9
$USERR3
 40
0.0
  9
$USERR4
 40
0.0
  9
$USERR5
 40
0.0
  9
$WORLDVIEW
 70
     1
  9
$SHADEDGE
 70
     3
  9
$SHADEDIF
 70
    70
  9
$TILEMODE
 70
     1
  9
$MAXACTVP
 70
    64
  9
$PINSBASE
 10
0.0
 20
0.0
 30
0.0
  9
$PLIMCHECK
 70
     0
  9
$PEXTMIN
 10
1.000000000000000E+20
 20
1.000000000000000E+20
 30
1.000000000000000E+20
  9
$PEXTMAX
 10
-1.000000000000000E+20
 20
-1.000000000000000E+20
 30
-1.000000000000000E+20
  9
$PLIMMIN
 10
0.0
 20
0.0
  9
$PLIMMAX
 10
12.0
 20
9.0
  9
$UNITMODE
 70
     0
  9
$VISRETAIN
 70
     1
  9
$PLINEGEN
 70
     0
  9
$PSLTSCALE
 70
     1
  9
$TREEDEPTH
 70
  3020
  9
$CMLSTYLE
  2
Standard
  9
$CMLJUST
 70
     0
  9
$CMLSCALE
 40
1.0
  9
$PROXYGRAPHICS
 70
     1
  9
$MEASUREMENT
 70
     0
  9
$CELWEIGHT
370
    -1
  9
$ENDCAPS
280
     0
  9
$JOINSTYLE
280
     0
  9
$LWDISPLAY
290
     1
  9
$INSUNITS
 70
     4
  9
$HYPERLINKBASE
  1

  9
$STYLESHEET
  1

  9
$XEDIT
290
     1
  9
$CEPSNTYPE
380
     0
  9
$PSTYLEMODE
290
     1
  9
$FINGERPRINTGUID
  2
{0D4F1E11-9803-D048-BB22-D444FC3E3C51}
  9
$VERSIONGUID
  2
{E8393F97-41E5-F14D-86AA-D2D68F00BAEA}
  9
$EXTNAMES
290
     1
  9
$PSVPSCALE
 40
0.0
  9
$OLESTARTUP
290
     0
  9
$SORTENTS
280
   127
  9
$INDEXCTL
280
     0
  9
$HIDETEXT
280
     1
  9
$XCLIPFRAME
280
     2
  9
$HALOGAP
280
     0
  9
$OBSCOLOR
 70
   257
  9
$OBSLTYPE
280
     0
  9
$INTERSECTIONDISPLAY
280
     0
  9
$INTERSECTIONCOLOR
 70
   257
  9
$DIMASSOC
280
     2
  9
$PROJECTNAME
  1

  9
$CAMERADISPLAY
290
     0
  9
$LENSLENGTH
 40
50.0
  9
$CAMERAHEIGHT
 40
0.0
  9
$STEPSPERSEC
 40
2.0
  9
$STEPSIZE
 40
6.0
  9
$3DDWFPREC
 40
2.0
  9
$PSOLWIDTH
 40
0.25
  9
$PSOLHEIGHT
 40
4.0
  9
$LOFTANG1
 40
1.570796326794896
  9
$LOFTANG2
 40
1.570796326794896
  9
$LOFTMAG1
 40
0.0
  9
$LOFTMAG2
 40
0.0
  9
$LOFTPARAM
 70
     7
  9
$LOFTNORMALS
280
     1
  9
$LATITUDE
 40
37.795
  9
$LONGITUDE
 40
-122.394
  9
$NORTHDIRECTION
 40
0.0
  9
$TIMEZONE
 70
 -8000
  9
$LIGHTGLYPHDISPLAY
280
     1
  9
$TILEMODELIGHTSYNCH
280
     1
  9
$CMATERIAL
347
11
  9
$SOLIDHIST
280
     0
  9
$SHOWHIST
280
     1
  9
$DWFFRAME
280
     2
  9
$DGNFRAME
280
     0
  9
$REALWORLDSCALE
290
     1
  9
$INTERFERECOLOR
 62
     1
  9
$INTERFEREOBJVS
345
33
  9
$INTERFEREVPVS
346
30
  9
$CSHADOW
280
     0
  9
$SHADOWPLANELOCATION
 40
0.0
  0
ENDSEC
  0
SECTION
  2
CLASSES
  0
CLASS
  1
ACDBDICTIONARYWDFLT
  2
AcDbDictionaryWithDefault
  3
ObjectDBX Classes
 90
        0
 91
        1
280
     0
281
     0
  0
CLASS
  1
MATERIAL
  2
AcDbMaterial
  3
ObjectDBX Classes
 90
     1153
 91
        3
280
     0
281
     0
  0
CLASS
  1
VISUALSTYLE
  2
AcDbVisualStyle
  3
ObjectDBX Classes
 90
     4095
 91
       24
280
     0
281
     0
  0
CLASS
  1
SCALE
  2
AcDbScale
  3
ObjectDBX Classes
 90
     1153
 91
       17
280
     0
281
     0
  0
CLASS
  1
TABLESTYLE
  2
AcDbTableStyle
  3
ObjectDBX Classes
 90
     4095
 91
        1
280
     0
281
     0
  0
CLASS
  1
MLEADERSTYLE
  2
AcDbMLeaderStyle
  3
ACDB_MLEADERSTYLE_CLASS
 90
     4095
 91
        1
280
     0
281
     0
  0
CLASS
  1
ACDBSECTIONVIEWSTYLE
  2
AcDbSectionViewStyle
  3
ObjectDBX Classes
 90
     1025
 91
        1
280
     0
281
     0
  0
CLASS
  1
ACDBDETAILVIEWSTYLE
  2
AcDbDetailViewStyle
  3
ObjectDBX Classes
 90
     1025
 91
        1
280
     0
281
     0
  0
CLASS
  1
DICTIONARYVAR
  2
AcDbDictionaryVar
  3
ObjectDBX Classes
 90
        0
 91
        5
280
     0
281
     0
  0
CLASS
  1
CELLSTYLEMAP
  2
AcDbCellStyleMap
  3
ObjectDBX Classes
 90
     1152
 91
        1
280
     0
281
     0
  0
ENDSEC
  0
SECTION
  2
TABLES
  0
TABLE
  2
VPORT
  5
8
330
0
100
AcDbSymbolTable
 70
     1
  0
VPORT
  5
57
330
8
100
AcDbSymbolTableRecord
100
AcDbViewportTableRecord
  2
*Active
 70
     0
 10
0.0
 20
0.0
 11
1.0
 21
1.0
 12
0.0
 22
0.0
 13
0.0
 23
0.0
 14
1.0
 24
1.0
 15
0.0
 25
0.0
 16
0.0
 26
0.0
 36
1.0
 17
374.9999999062495
 27
74.96527775903662
 37
0.0
 40
153.1841666284342
 41
4.993988717282668
 42
50.0
 43
0.0
 44
0.0
 50
0.0
 51
0.0
 71
     0
 72
   100
 73
     1
 74
     1
 75
     0
 76
     0
 77
     0
 78
     0
281
     0
 65
     1
110
0.0
120
0.0
130
0.0
111
1.0
121
0.0
131
0.0
112
0.0
122
1.0
132
0.0
 79
     0
146
0.0
 60
     3
 61
     5
292
     1
282
     1
141
0.0
142
0.0
 63
   250
421
  3355443
  0
ENDTAB
  0
TABLE
  2
LTYPE
  5
5
330
0
100
AcDbSymbolTable
 70
     3
  0
LTYPE
  5
5B
330
5
100
AcDbSymbolTableRecord
100
AcDbLinetypeTableRecord
  2
ByBlock
 70
     0
  3

 72
    65
 73
     0
 40
0.0
  0
LTYPE
  5
5C
330
5
100
AcDbSymbolTableRecord
100
AcDbLinetypeTableRecord
  2
ByLayer
 70
     0
  3

 72
    65
 73
     0
 40
0.0
  0
LTYPE
  5
5D
330
5
100
AcDbSymbolTableRecord
100
AcDbLinetypeTableRecord
  2
Continuous
 70
     0
  3
Solid line
 72
    65
 73
     0
 40
0.0
  0
LTYPE
  5
18B
330
5
100
AcDbSymbolTableRecord
100
AcDbLinetypeTableRecord
  2
AI-Linetype-0
 70
     0
  3
Adobe Illustrator Linetype No. 0
 72
    65
 73
     6
 40
0.0621107518905717
 49
0.0213078204282168
 74
     0
 49
-0.0053224444453647
 74
     0
 49
0.0213078204282168
 74
     0
 49
-0.0053224444453647
 74
     0
 49
0.0035277776980439
 74
     0
 49
-0.0053224444453647
 74
     0
  0
LTYPE
  5
18E
330
5
100
AcDbSymbolTableRecord
100
AcDbLinetypeTableRecord
  2
AI-Linetype-1
 70
     0
  3
Adobe Illustrator Linetype No. 1
 72
    65
 73
     6
 40
0.0621107518905717
 49
0.0213078204282168
 74
     0
 49
-0.0053224444453647
 74
     0
 49
0.0213078204282168
 74
     0
 49
-0.0053224444453647
 74
     0
 49
0.0035277776980439
 74
     0
 49
-0.0053224444453647
 74
     0
  0
ENDTAB
  0
TABLE
  2
LAYER
  5
2
330
0
100
AcDbSymbolTable
 70
     6
  0
LAYER
  5
54
330
2
100
AcDbSymbolTableRecord
100
AcDbLayerTableRecord
  2
0
 70
     0
 62
     7
  6
Continuous
370
     0
390
F
347
21
348
0
  0
LAYER
  5
C4
330
2
100
AcDbSymbolTableRecord
100
AcDbLayerTableRecord
  2
Sketch Geometry(ISO)
 70
     0
 62
     7
  6
Continuous
370
     0
390
F
347
21
348
0
  0
LAYER
  5
1E5
330
2
100
AcDbSymbolTableRecord
100
AcDbLayerTableRecord
  2
Symbols(ISO)
 70
     0
 62
     7
  6
Continuous
370
     0
390
F
347
21
348
0
  0
LAYER
  5
282
330
2
100
AcDbSymbolTableRecord
100
AcDbLayerTableRecord
  2
Visible Edges(ISO)
 70
     0
 62
     7
  6
Continuous
370
     0
390
F
347
21
348
0
  0
LAYER
  5
2D8
330
2
100
AcDbSymbolTableRecord
100
AcDbLayerTableRecord
  2
Dimensions(ISO)
 70
     0
 62
     7
  6
Continuous
370
     0
390
F
347
21
348
0
  0
LAYER
  5
2FD
330
2
100
AcDbSymbolTableRecord
100
AcDbLayerTableRecord
  2
Hatch
 70
     0
 62
     7
  6
Continuous
370
     0
390
F
347
21
348
0
  0
ENDTAB
  0
TABLE
  2
STYLE
  5
3
330
0
100
AcDbSymbolTable
 70
     2
  0
STYLE
  5
55
330
3
100
AcDbSymbolTableRecord
100
AcDbTextStyleTableRecord
  2
Standard
 70
     0
 40
0.0
 41
1.0
 50
0.0
 71
     0
 42
0.2
  3
txt
  4

  0
STYLE
  5
5A
330
3
100
AcDbSymbolTableRecord
100
AcDbTextStyleTableRecord
  2
Annotative
 70
     0
 40
0.0
 41
1.0
 50
0.0
 71
     0
 42
0.2
  3
txt
  4

1001
AcadAnnotative
1000
AnnotativeData
1002
{
1070
     1
1070
     1
1002
}
  0
ENDTAB
  0
TABLE
  2
VIEW
  5
6
330
0
100
AcDbSymbolTable
 70
     0
  0
ENDTAB
  0
TABLE
  2
UCS
  5
7
330
0
100
AcDbSymbolTable
 70
     0
  0
ENDTAB
  0
TABLE
  2
APPID
  5
9
330
0
100
AcDbSymbolTable
 70
     2
  0
APPID
  5
56
330
9
100
AcDbSymbolTableRecord
100
AcDbRegAppTableRecord
  2
ACAD
 70
     0
  0
APPID
  5
5E
330
9
100
AcDbSymbolTableRecord
100
AcDbRegAppTableRecord
  2
AcadAnnotative
 70
     0
  0
ENDTAB
  0
TABLE
  2
DIMSTYLE
  5
A
330
0
100
AcDbSymbolTable
 70
     2
100
AcDbDimStyleTable
 71
     0
  0
DIMSTYLE
105
58
330
A
100
AcDbSymbolTableRecord
100
AcDbDimStyleTableRecord
  2
Standard
 70
     0
340
55
  0
DIMSTYLE
105
59
330
A
100
AcDbSymbolTableRecord
100
AcDbDimStyleTableRecord
  2
Annotative
 70
     0
340
55
1001
AcadAnnotative
1000
AnnotativeData
1002
{
1070
     1
1070
     1
1002
}
  0
ENDTAB
  0
TABLE
  2
BLOCK_RECORD
  5
1
330
0
100
AcDbSymbolTable
 70
    49
  0
BLOCK_RECORD
  5
70
330
1
100
AcDbSymbolTableRecord
100
AcDbBlockTableRecord
  2
*Model_Space
340
73
 70
     0
280
     1
281
     0
  0
BLOCK_RECORD
  5
6C
330
1
100
AcDbSymbolTableRecord
100
AcDbBlockTableRecord
  2
*Paper_Space
340
6F
 70
     0
280
     1
281
     0
  0
BLOCK_RECORD
  5
74
330
1
100
AcDbSymbolTableRecord
100
AcDbBlockTableRecord
  2
*Paper_Space0
340
77
 70
     0
280
     1
281
     0
  0
BLOCK_RECORD
  5
83
330
1
100
AcDbSymbolTableRecord
100
AcDbBlockTableRecord
  2
Block_0
340
0
102
{BLKREFS
331
84
102
}
 70
     0
280
     1
281
     0
  0
BLOCK_RECORD
  5
87
330
1
100
AcDbSymbolTableRecord
100
AcDbBlockTableRecord
  2
Block_1
340
0
102
{BLKREFS
331
88
102
}
 70
     0
280
     1
281
     0
  0
BLOCK_RECORD
  5
8C
330
1
100
AcDbSymbolTableRecord
100
AcDbBlockTableRecord
  2
Block_2
340
0
102
{BLKREFS
331
8D
102
}
 70
     0
280
     1
281
     0
  0
BLOCK_RECORD
  5
90
330
1
100
AcDbSymbolTableRecord
100
AcDbBlockTableRecord
  2
Block_3
340
0
102
{BLKREFS
331
91
102
}
 70
     0
280
     1
281
     0
  0
BLOCK_RECORD
  5
94
330
1
100
AcDbSymbolTableRecord
100
AcDbBlockTableRecord
  2
Block_4
340
0
102
{BLKREFS
331
95
102
}
 70
     0
280
     1
281
     0
  0
BLOCK_RECORD
  5
98
330
1
100
AcDbSymbolTableRecord
100
AcDbBlockTableRecord
  2
Block_5
340
0
102
{BLKREFS
331
99
102
}
 70
     0
280
     1
281
     0
  0
BLOCK_RECORD
  5
9C
330
1
100
AcDbSymbolTableRecord
100
AcDbBlockTableRecord
  2
Block_6
340
0
102
{BLKREFS
331
9D
102
}
 70
     0
280
     1
281
     0
  0
BLOCK_RECORD
  5
A0
330
1
100
AcDbSymbolTableRecord
100
AcDbBlockTableRecord
  2
Block_7
340
0
102
{BLKREFS
331
A1
102
}
 70
     0
280
     1
281
     0
  0
BLOCK_RECORD
  5
A4
330
1
100
AcDbSymbolTableRecord
100
AcDbBlockTableRecord
  2
Block_8
340
0
102
{BLKREFS
331
A5
102
}
 70
     0
280
     1
281
     0
  0
BLOCK_RECORD
  5
A8
330
1
100
AcDbSymbolTableRecord
100
AcDbBlockTableRecord
  2
Block_9
340
0
102
{BLKREFS
331
A9
102
}
 70
     0
280
     1
281
     0
  0
BLOCK_RECORD
  5
AC
330
1
100
AcDbSymbolTableRecord
100
AcDbBlockTableRecord
  2
Block_10
340
0
102
{BLKREFS
331
AD
102
}
 70
     0
280
     1
281
     0
  0
BLOCK_RECORD
  5
B0
330
1
100
AcDbSymbolTableRecord
100
AcDbBlockTableRecord
  2
Block_11
340
0
102
{BLKREFS
331
B1
102
}
 70
     0
280
     1
281
     0
  0
BLOCK_RECORD
  5
B4
330
1
100
AcDbSymbolTableRecord
100
AcDbBlockTableRecord
  2
Block_12
340
0
102
{BLKREFS
331
B5
102
}
 70
     0
280
     1
281
     0
  0
BLOCK_RECORD
  5
B8
330
1
100
AcDbSymbolTableRecord
100
AcDbBlockTableRecord
  2
Block_13
340
0
102
{BLKREFS
331
B9
102
}
 70
     0
280
     1
281
     0
  0
BLOCK_RECORD
  5
BC
330
1
100
AcDbSymbolTableRecord
100
AcDbBlockTableRecord
  2
Block_14
340
0
102
{BLKREFS
331
BD
102
}
 70
     0
280
     1
281
     0
  0
BLOCK_RECORD
  5
C0
330
1
100
AcDbSymbolTableRecord
100
AcDbBlockTableRecord
  2
Block_15
340
0
102
{BLKREFS
331
C1
102
}
 70
     0
280
     1
281
     0
  0
BLOCK_RECORD
  5
1E8
330
1
100
AcDbSymbolTableRecord
100
AcDbBlockTableRecord
  2
Block_16
340
0
102
{BLKREFS
331
1E9
102
}
 70
     0
280
     1
281
     0
  0
BLOCK_RECORD
  5
212
330
1
100
AcDbSymbolTableRecord
100
AcDbBlockTableRecord
  2
Block_17
340
0
102
{BLKREFS
331
213
102
}
 70
     0
280
     1
281
     0
  0
BLOCK_RECORD
  5
216
330
1
100
AcDbSymbolTableRecord
100
AcDbBlockTableRecord
  2
Block_18
340
0
102
{BLKREFS
331
217
102
}
 70
     0
280
     1
281
     0
  0
BLOCK_RECORD
  5
21A
330
1
100
AcDbSymbolTableRecord
100
AcDbBlockTableRecord
  2
Block_19
340
0
102
{BLKREFS
331
21B
102
}
 70
     0
280
     1
281
     0
  0
BLOCK_RECORD
  5
21E
330
1
100
AcDbSymbolTableRecord
100
AcDbBlockTableRecord
  2
Block_20
340
0
102
{BLKREFS
331
21F
102
}
 70
     0
280
     1
281
     0
  0
BLOCK_RECORD
  5
222
330
1
100
AcDbSymbolTableRecord
100
AcDbBlockTableRecord
  2
Block_21
340
0
102
{BLKREFS
331
223
102
}
 70
     0
280
     1
281
     0
  0
BLOCK_RECORD
  5
226
330
1
100
AcDbSymbolTableRecord
100
AcDbBlockTableRecord
  2
Block_22
340
0
102
{BLKREFS
331
227
102
}
 70
     0
280
     1
281
     0
  0
BLOCK_RECORD
  5
22A
330
1
100
AcDbSymbolTableRecord
100
AcDbBlockTableRecord
  2
Block_23
340
0
102
{BLKREFS
331
22B
102
}
 70
     0
280
     1
281
     0
  0
BLOCK_RECORD
  5
22E
330
1
100
AcDbSymbolTableRecord
100
AcDbBlockTableRecord
  2
Block_24
340
0
102
{BLKREFS
331
22F
102
}
 70
     0
280
     1
281
     0
  0
BLOCK_RECORD
  5
232
330
1
100
AcDbSymbolTableRecord
100
AcDbBlockTableRecord
  2
Block_25
340
0
102
{BLKREFS
331
233
102
}
 70
     0
280
     1
281
     0
  0
BLOCK_RECORD
  5
236
330
1
100
AcDbSymbolTableRecord
100
AcDbBlockTableRecord
  2
Block_26
340
0
102
{BLKREFS
331
237
102
}
 70
     0
280
     1
281
     0
  0
BLOCK_RECORD
  5
23A
330
1
100
AcDbSymbolTableRecord
100
AcDbBlockTableRecord
  2
Block_27
340
0
102
{BLKREFS
331
23B
102
}
 70
     0
280
     1
281
     0
  0
BLOCK_RECORD
  5
23E
330
1
100
AcDbSymbolTableRecord
100
AcDbBlockTableRecord
  2
Block_28
340
0
102
{BLKREFS
331
23F
102
}
 70
     0
280
     1
281
     0
  0
BLOCK_RECORD
  5
242
330
1
100
AcDbSymbolTableRecord
100
AcDbBlockTableRecord
  2
Block_29
340
0
102
{BLKREFS
331
243
102
}
 70
     0
280
     1
281
     0
  0
BLOCK_RECORD
  5
246
330
1
100
AcDbSymbolTableRecord
100
AcDbBlockTableRecord
  2
Block_30
340
0
102
{BLKREFS
331
247
102
}
 70
     0
280
     1
281
     0
  0
BLOCK_RECORD
  5
24A
330
1
100
AcDbSymbolTableRecord
100
AcDbBlockTableRecord
  2
Block_31
340
0
102
{BLKREFS
331
24B
102
}
 70
     0
280
     1
281
     0
  0
BLOCK_RECORD
  5
24E
330
1
100
AcDbSymbolTableRecord
100
AcDbBlockTableRecord
  2
Block_32
340
0
102
{BLKREFS
331
24F
102
}
 70
     0
280
     1
281
     0
  0
BLOCK_RECORD
  5
252
330
1
100
AcDbSymbolTableRecord
100
AcDbBlockTableRecord
  2
Block_33
340
0
102
{BLKREFS
331
253
102
}
 70
     0
280
     1
281
     0
  0
BLOCK_RECORD
  5
256
330
1
100
AcDbSymbolTableRecord
100
AcDbBlockTableRecord
  2
Block_34
340
0
102
{BLKREFS
331
257
102
}
 70
     0
280
     1
281
     0
  0
BLOCK_RECORD
  5
25A
330
1
100
AcDbSymbolTableRecord
100
AcDbBlockTableRecord
  2
Block_35
340
0
102
{BLKREFS
331
25B
102
}
 70
     0
280
     1
281
     0
  0
BLOCK_RECORD
  5
25E
330
1
100
AcDbSymbolTableRecord
100
AcDbBlockTableRecord
  2
Block_36
340
0
102
{BLKREFS
331
25F
102
}
 70
     0
280
     1
281
     0
  0
BLOCK_RECORD
  5
262
330
1
100
AcDbSymbolTableRecord
100
AcDbBlockTableRecord
  2
Block_37
340
0
102
{BLKREFS
331
263
102
}
 70
     0
280
     1
281
     0
  0
BLOCK_RECORD
  5
266
330
1
100
AcDbSymbolTableRecord
100
AcDbBlockTableRecord
  2
Block_38
340
0
102
{BLKREFS
331
267
102
}
 70
     0
280
     1
281
     0
  0
BLOCK_RECORD
  5
26A
330
1
100
AcDbSymbolTableRecord
100
AcDbBlockTableRecord
  2
Block_39
340
0
102
{BLKREFS
331
26B
102
}
 70
     0
280
     1
281
     0
  0
BLOCK_RECORD
  5
26E
330
1
100
AcDbSymbolTableRecord
100
AcDbBlockTableRecord
  2
Block_40
340
0
102
{BLKREFS
331
26F
102
}
 70
     0
280
     1
281
     0
  0
BLOCK_RECORD
  5
272
330
1
100
AcDbSymbolTableRecord
100
AcDbBlockTableRecord
  2
Block_41
340
0
102
{BLKREFS
331
273
102
}
 70
     0
280
     1
281
     0
  0
BLOCK_RECORD
  5
276
330
1
100
AcDbSymbolTableRecord
100
AcDbBlockTableRecord
  2
Block_42
340
0
102
{BLKREFS
331
277
102
}
 70
     0
280
     1
281
     0
  0
BLOCK_RECORD
  5
27A
330
1
100
AcDbSymbolTableRecord
100
AcDbBlockTableRecord
  2
Block_43
340
0
102
{BLKREFS
331
27B
102
}
 70
     0
280
     1
281
     0
  0
BLOCK_RECORD
  5
27E
330
1
100
AcDbSymbolTableRecord
100
AcDbBlockTableRecord
  2
Block_44
340
0
102
{BLKREFS
331
27F
102
}
 70
     0
280
     1
281
     0
  0
BLOCK_RECORD
  5
2D9
330
1
100
AcDbSymbolTableRecord
100
AcDbBlockTableRecord
  2
Block_45
340
0
102
{BLKREFS
331
2DA
102
}
 70
     0
280
     1
281
     0
  0
BLOCK_RECORD
  5
2E5
330
1
100
AcDbSymbolTableRecord
100
AcDbBlockTableRecord
  2
Block_46
340
0
102
{BLKREFS
331
2E6
102
}
 70
     0
280
     1
281
     0
  0
BLOCK_RECORD
  5
2F1
330
1
100
AcDbSymbolTableRecord
100
AcDbBlockTableRecord
  2
Block_47
340
0
102
{BLKREFS
331
2F2
102
}
 70
     0
280
     1
281
     0
  0
ENDTAB
  0
ENDSEC
  0
SECTION
  2
BLOCKS
  0
BLOCK
  5
71
330
70
100
AcDbEntity
  8
0
100
AcDbBlockBegin
  2
*Model_Space
 70
     0
 10
0.0
 20
0.0
 30
0.0
  3
*Model_Space
  1

  0
ENDBLK
  5
72
330
70
100
AcDbEntity
  8
0
100
AcDbBlockEnd
  0
BLOCK
  5
6D
330
6C
100
AcDbEntity
 67
     1
  8
0
100
AcDbBlockBegin
  2
*Paper_Space
 70
     0
 10
0.0
 20
0.0
 30
0.0
  3
*Paper_Space
  1

  0
ENDBLK
  5
6E
330
6C
100
AcDbEntity
 67
     1
  8
0
100
AcDbBlockEnd
  0
BLOCK
  5
75
330
74
100
AcDbEntity
 67
     1
  8
0
100
AcDbBlockBegin
  2
*Paper_Space0
 70
     0
 10
0.0
 20
0.0
 30
0.0
  3
*Paper_Space0
  1

  0
ENDBLK
  5
76
330
74
100
AcDbEntity
 67
     1
  8
0
100
AcDbBlockEnd
  0
BLOCK
  5
85
330
83
100
AcDbEntity
  8
0
100
AcDbBlockBegin
  2
Block_0
 70
     0
 10
0.0
 20
0.0
 30
0.0
  3
Block_0
  1

  0
ENDBLK
  5
86
330
83
100
AcDbEntity
  8
0
100
AcDbBlockEnd
  0
BLOCK
  5
89
330
87
100
AcDbEntity
  8
0
100
AcDbBlockBegin
  2
Block_1
 70
     0
 10
0.0
 20
0.0
 30
0.0
  3
Block_1
  1

  0
ENDBLK
  5
8A
330
87
100
AcDbEntity
  8
0
100
AcDbBlockEnd
  0
BLOCK
  5
8E
330
8C
100
AcDbEntity
  8
0
100
AcDbBlockBegin
  2
Block_2
 70
     0
 10
0.0
 20
0.0
 30
0.0
  3
Block_2
  1

  0
ENDBLK
  5
8F
330
8C
100
AcDbEntity
  8
0
100
AcDbBlockEnd
  0
BLOCK
  5
92
330
90
100
AcDbEntity
  8
0
100
AcDbBlockBegin
  2
Block_3
 70
     0
 10
0.0
 20
0.0
 30
0.0
  3
Block_3
  1

  0
ENDBLK
  5
93
330
90
100
AcDbEntity
  8
0
100
AcDbBlockEnd
  0
BLOCK
  5
96
330
94
100
AcDbEntity
  8
0
100
AcDbBlockBegin
  2
Block_4
 70
     0
 10
0.0
 20
0.0
 30
0.0
  3
Block_4
  1

  0
ENDBLK
  5
97
330
94
100
AcDbEntity
  8
0
100
AcDbBlockEnd
  0
BLOCK
  5
9A
330
98
100
AcDbEntity
  8
0
100
AcDbBlockBegin
  2
Block_5
 70
     0
 10
0.0
 20
0.0
 30
0.0
  3
Block_5
  1

  0
ENDBLK
  5
9B
330
98
100
AcDbEntity
  8
0
100
AcDbBlockEnd
  0
BLOCK
  5
9E
330
9C
100
AcDbEntity
  8
0
100
AcDbBlockBegin
  2
Block_6
 70
     0
 10
0.0
 20
0.0
 30
0.0
  3
Block_6
  1

  0
ENDBLK
  5
9F
330
9C
100
AcDbEntity
  8
0
100
AcDbBlockEnd
  0
BLOCK
  5
A2
330
A0
100
AcDbEntity
  8
0
100
AcDbBlockBegin
  2
Block_7
 70
     0
 10
0.0
 20
0.0
 30
0.0
  3
Block_7
  1

  0
ENDBLK
  5
A3
330
A0
100
AcDbEntity
  8
0
100
AcDbBlockEnd
  0
BLOCK
  5
A6
330
A4
100
AcDbEntity
  8
0
100
AcDbBlockBegin
  2
Block_8
 70
     0
 10
0.0
 20
0.0
 30
0.0
  3
Block_8
  1

  0
ENDBLK
  5
A7
330
A4
100
AcDbEntity
  8
0
100
AcDbBlockEnd
  0
BLOCK
  5
AA
330
A8
100
AcDbEntity
  8
0
100
AcDbBlockBegin
  2
Block_9
 70
     0
 10
0.0
 20
0.0
 30
0.0
  3
Block_9
  1

  0
ENDBLK
  5
AB
330
A8
100
AcDbEntity
  8
0
100
AcDbBlockEnd
  0
BLOCK
  5
AE
330
AC
100
AcDbEntity
  8
0
100
AcDbBlockBegin
  2
Block_10
 70
     0
 10
0.0
 20
0.0
 30
0.0
  3
Block_10
  1

  0
ENDBLK
  5
AF
330
AC
100
AcDbEntity
  8
0
100
AcDbBlockEnd
  0
BLOCK
  5
B2
330
B0
100
AcDbEntity
  8
0
100
AcDbBlockBegin
  2
Block_11
 70
     0
 10
0.0
 20
0.0
 30
0.0
  3
Block_11
  1

  0
ENDBLK
  5
B3
330
B0
100
AcDbEntity
  8
0
100
AcDbBlockEnd
  0
BLOCK
  5
B6
330
B4
100
AcDbEntity
  8
0
100
AcDbBlockBegin
  2
Block_12
 70
     0
 10
0.0
 20
0.0
 30
0.0
  3
Block_12
  1

  0
ENDBLK
  5
B7
330
B4
100
AcDbEntity
  8
0
100
AcDbBlockEnd
  0
BLOCK
  5
BA
330
B8
100
AcDbEntity
  8
0
100
AcDbBlockBegin
  2
Block_13
 70
     0
 10
0.0
 20
0.0
 30
0.0
  3
Block_13
  1

  0
ENDBLK
  5
BB
330
B8
100
AcDbEntity
  8
0
100
AcDbBlockEnd
  0
BLOCK
  5
BE
330
BC
100
AcDbEntity
  8
0
100
AcDbBlockBegin
  2
Block_14
 70
     0
 10
0.0
 20
0.0
 30
0.0
  3
Block_14
  1

  0
ENDBLK
  5
BF
330
BC
100
AcDbEntity
  8
0
100
AcDbBlockEnd
  0
BLOCK
  5
C2
330
C0
100
AcDbEntity
  8
0
100
AcDbBlockBegin
  2
Block_15
 70
     0
 10
0.0
 20
0.0
 30
0.0
  3
Block_15
  1

  0
ENDBLK
  5
C3
330
C0
100
AcDbEntity
  8
0
100
AcDbBlockEnd
  0
BLOCK
  5
1EA
330
1E8
100
AcDbEntity
  8
0
100
AcDbBlockBegin
  2
Block_16
 70
     0
 10
0.0
 20
0.0
 30
0.0
  3
Block_16
  1

  0
MTEXT
  5
1EC
330
1E8
100
AcDbEntity
  8
Symbols(ISO)
100
AcDbMText
 10
283.2141297374105
 20
1.908043593353521
 30
0.0
 40
0.2
 41
0.0
 46
0.0
 71
     7
 72
     1
  1
\C18;\c0;\FArial|b0|i0|c1;\H0.811898;\W1.000000;0.50
 73
     1
 44
1.0
  0
MTEXT
  5
1ED
330
1E8
100
AcDbEntity
  8
Symbols(ISO)
100
AcDbMText
 10
285.4216607969714
 20
1.908043593353521
 30
0.0
 40
0.2
 41
0.0
 46
0.0
 71
     7
 72
     1
  1
\C18;\c0;\FMyriad Pro|b0|i0|c1;\H0.811898;\W1.000000;~
 73
     1
 44
1.0
  0
ENDBLK
  5
1EB
330
1E8
100
AcDbEntity
  8
0
100
AcDbBlockEnd
  0
BLOCK
  5
214
330
212
100
AcDbEntity
  8
0
100
AcDbBlockBegin
  2
Block_17
 70
     0
 10
0.0
 20
0.0
 30
0.0
  3
Block_17
  1

  0
ENDBLK
  5
215
330
212
100
AcDbEntity
  8
0
100
AcDbBlockEnd
  0
BLOCK
  5
218
330
216
100
AcDbEntity
  8
0
100
AcDbBlockBegin
  2
Block_18
 70
     0
 10
0.0
 20
0.0
 30
0.0
  3
Block_18
  1

  0
ENDBLK
  5
219
330
216
100
AcDbEntity
  8
0
100
AcDbBlockEnd
  0
BLOCK
  5
21C
330
21A
100
AcDbEntity
  8
0
100
AcDbBlockBegin
  2
Block_19
 70
     0
 10
0.0
 20
0.0
 30
0.0
  3
Block_19
  1

  0
ENDBLK
  5
21D
330
21A
100
AcDbEntity
  8
0
100
AcDbBlockEnd
  0
BLOCK
  5
220
330
21E
100
AcDbEntity
  8
0
100
AcDbBlockBegin
  2
Block_20
 70
     0
 10
0.0
 20
0.0
 30
0.0
  3
Block_20
  1

  0
ENDBLK
  5
221
330
21E
100
AcDbEntity
  8
0
100
AcDbBlockEnd
  0
BLOCK
  5
224
330
222
100
AcDbEntity
  8
0
100
AcDbBlockBegin
  2
Block_21
 70
     0
 10
0.0
 20
0.0
 30
0.0
  3
Block_21
  1

  0
ENDBLK
  5
225
330
222
100
AcDbEntity
  8
0
100
AcDbBlockEnd
  0
BLOCK
  5
228
330
226
100
AcDbEntity
  8
0
100
AcDbBlockBegin
  2
Block_22
 70
     0
 10
0.0
 20
0.0
 30
0.0
  3
Block_22
  1

  0
ENDBLK
  5
229
330
226
100
AcDbEntity
  8
0
100
AcDbBlockEnd
  0
BLOCK
  5
22C
330
22A
100
AcDbEntity
  8
0
100
AcDbBlockBegin
  2
Block_23
 70
     0
 10
0.0
 20
0.0
 30
0.0
  3
Block_23
  1

  0
ENDBLK
  5
22D
330
22A
100
AcDbEntity
  8
0
100
AcDbBlockEnd
  0
BLOCK
  5
230
330
22E
100
AcDbEntity
  8
0
100
AcDbBlockBegin
  2
Block_24
 70
     0
 10
0.0
 20
0.0
 30
0.0
  3
Block_24
  1

  0
ENDBLK
  5
231
330
22E
100
AcDbEntity
  8
0
100
AcDbBlockEnd
  0
BLOCK
  5
234
330
232
100
AcDbEntity
  8
0
100
AcDbBlockBegin
  2
Block_25
 70
     0
 10
0.0
 20
0.0
 30
0.0
  3
Block_25
  1

  0
ENDBLK
  5
235
330
232
100
AcDbEntity
  8
0
100
AcDbBlockEnd
  0
BLOCK
  5
238
330
236
100
AcDbEntity
  8
0
100
AcDbBlockBegin
  2
Block_26
 70
     0
 10
0.0
 20
0.0
 30
0.0
  3
Block_26
  1

  0
ENDBLK
  5
239
330
236
100
AcDbEntity
  8
0
100
AcDbBlockEnd
  0
BLOCK
  5
23C
330
23A
100
AcDbEntity
  8
0
100
AcDbBlockBegin
  2
Block_27
 70
     0
 10
0.0
 20
0.0
 30
0.0
  3
Block_27
  1

  0
ENDBLK
  5
23D
330
23A
100
AcDbEntity
  8
0
100
AcDbBlockEnd
  0
BLOCK
  5
240
330
23E
100
AcDbEntity
  8
0
100
AcDbBlockBegin
  2
Block_28
 70
     0
 10
0.0
 20
0.0
 30
0.0
  3
Block_28
  1

  0
ENDBLK
  5
241
330
23E
100
AcDbEntity
  8
0
100
AcDbBlockEnd
  0
BLOCK
  5
244
330
242
100
AcDbEntity
  8
0
100
AcDbBlockBegin
  2
Block_29
 70
     0
 10
0.0
 20
0.0
 30
0.0
  3
Block_29
  1

  0
ENDBLK
  5
245
330
242
100
AcDbEntity
  8
0
100
AcDbBlockEnd
  0
BLOCK
  5
248
330
246
100
AcDbEntity
  8
0
100
AcDbBlockBegin
  2
Block_30
 70
     0
 10
0.0
 20
0.0
 30
0.0
  3
Block_30
  1

  0
ENDBLK
  5
249
330
246
100
AcDbEntity
  8
0
100
AcDbBlockEnd
  0
BLOCK
  5
24C
330
24A
100
AcDbEntity
  8
0
100
AcDbBlockBegin
  2
Block_31
 70
     0
 10
0.0
 20
0.0
 30
0.0
  3
Block_31
  1

  0
ENDBLK
  5
24D
330
24A
100
AcDbEntity
  8
0
100
AcDbBlockEnd
  0
BLOCK
  5
250
330
24E
100
AcDbEntity
  8
0
100
AcDbBlockBegin
  2
Block_32
 70
     0
 10
0.0
 20
0.0
 30
0.0
  3
Block_32
  1

  0
ENDBLK
  5
251
330
24E
100
AcDbEntity
  8
0
100
AcDbBlockEnd
  0
BLOCK
  5
254
330
252
100
AcDbEntity
  8
0
100
AcDbBlockBegin
  2
Block_33
 70
     0
 10
0.0
 20
0.0
 30
0.0
  3
Block_33
  1

  0
ENDBLK
  5
255
330
252
100
AcDbEntity
  8
0
100
AcDbBlockEnd
  0
BLOCK
  5
258
330
256
100
AcDbEntity
  8
0
100
AcDbBlockBegin
  2
Block_34
 70
     0
 10
0.0
 20
0.0
 30
0.0
  3
Block_34
  1

  0
ENDBLK
  5
259
330
256
100
AcDbEntity
  8
0
100
AcDbBlockEnd
  0
BLOCK
  5
25C
330
25A
100
AcDbEntity
  8
0
100
AcDbBlockBegin
  2
Block_35
 70
     0
 10
0.0
 20
0.0
 30
0.0
  3
Block_35
  1

  0
ENDBLK
  5
25D
330
25A
100
AcDbEntity
  8
0
100
AcDbBlockEnd
  0
BLOCK
  5
260
330
25E
100
AcDbEntity
  8
0
100
AcDbBlockBegin
  2
Block_36
 70
     0
 10
0.0
 20
0.0
 30
0.0
  3
Block_36
  1

  0
ENDBLK
  5
261
330
25E
100
AcDbEntity
  8
0
100
AcDbBlockEnd
  0
BLOCK
  5
264
330
262
100
AcDbEntity
  8
0
100
AcDbBlockBegin
  2
Block_37
 70
     0
 10
0.0
 20
0.0
 30
0.0
  3
Block_37
  1

  0
ENDBLK
  5
265
330
262
100
AcDbEntity
  8
0
100
AcDbBlockEnd
  0
BLOCK
  5
268
330
266
100
AcDbEntity
  8
0
100
AcDbBlockBegin
  2
Block_38
 70
     0
 10
0.0
 20
0.0
 30
0.0
  3
Block_38
  1

  0
ENDBLK
  5
269
330
266
100
AcDbEntity
  8
0
100
AcDbBlockEnd
  0
BLOCK
  5
26C
330
26A
100
AcDbEntity
  8
0
100
AcDbBlockBegin
  2
Block_39
 70
     0
 10
0.0
 20
0.0
 30
0.0
  3
Block_39
  1

  0
ENDBLK
  5
26D
330
26A
100
AcDbEntity
  8
0
100
AcDbBlockEnd
  0
BLOCK
  5
270
330
26E
100
AcDbEntity
  8
0
100
AcDbBlockBegin
  2
Block_40
 70
     0
 10
0.0
 20
0.0
 30
0.0
  3
Block_40
  1

  0
ENDBLK
  5
271
330
26E
100
AcDbEntity
  8
0
100
AcDbBlockEnd
  0
BLOCK
  5
274
330
272
100
AcDbEntity
  8
0
100
AcDbBlockBegin
  2
Block_41
 70
     0
 10
0.0
 20
0.0
 30
0.0
  3
Block_41
  1

  0
ENDBLK
  5
275
330
272
100
AcDbEntity
  8
0
100
AcDbBlockEnd
  0
BLOCK
  5
278
330
276
100
AcDbEntity
  8
0
100
AcDbBlockBegin
  2
Block_42
 70
     0
 10
0.0
 20
0.0
 30
0.0
  3
Block_42
  1

  0
ENDBLK
  5
279
330
276
100
AcDbEntity
  8
0
100
AcDbBlockEnd
  0
BLOCK
  5
27C
330
27A
100
AcDbEntity
  8
0
100
AcDbBlockBegin
  2
Block_43
 70
     0
 10
0.0
 20
0.0
 30
0.0
  3
Block_43
  1

  0
ENDBLK
  5
27D
330
27A
100
AcDbEntity
  8
0
100
AcDbBlockEnd
  0
BLOCK
  5
280
330
27E
100
AcDbEntity
  8
0
100
AcDbBlockBegin
  2
Block_44
 70
     0
 10
0.0
 20
0.0
 30
0.0
  3
Block_44
  1

  0
ENDBLK
  5
281
330
27E
100
AcDbEntity
  8
0
100
AcDbBlockEnd
  0
BLOCK
  5
2DB
330
2D9
100
AcDbEntity
  8
0
100
AcDbBlockBegin
  2
Block_45
 70
     0
 10
0.0
 20
0.0
 30
0.0
  3
Block_45
  1

  0
LINE
  5
2DD
330
2D9
100
AcDbEntity
  8
Dimensions(ISO)
 62
    18
420
        0
370
    25
100
AcDbLine
 10
306.9501489076383
 20
128.9015539311687
 30
0.0
 11
283.932831665389
 21
128.9015539311687
 31
0.0
  0
LINE
  5
2DE
330
2D9
100
AcDbEntity
  8
Dimensions(ISO)
 62
    18
420
        0
370
    25
100
AcDbLine
 10
298.9123555786113
 20
68.40828878710972
 30
0.0
 11
283.932831665389
 21
68.40828878710972
 31
0.0
  0
LINE
  5
2DF
330
2D9
100
AcDbEntity
  8
Dimensions(ISO)
 62
    18
420
        0
370
    25
100
AcDbLine
 10
285.6513497656409
 20
127.5483900727025
 30
0.0
 11
285.6513497656412
 21
69.76145264557588
 31
0.0
  0
LWPOLYLINE
  5
2E0
330
2D9
100
AcDbEntity
  8
Dimensions(ISO)
100
AcDbPolyline
 90
        4
 70
     1
 43
0.0
 10
285.4258224558965
 20
127.5483900727025
 10
285.8768770753856
 20
127.5483900727025
 10
285.6513497656409
 20
128.9015539311687
 10
285.6513497656409
 20
128.9015539311687
  0
HATCH
  5
2E1
330
2D9
100
AcDbEntity
  8
Dimensions(ISO)
 62
    18
420
        0
440
 33554687
100
AcDbHatch
 10
0.0
 20
0.0
 30
0.0
210
0.0
220
0.0
230
1.0
  2
SOLID
 70
     1
 71
     1
 91
        1
 92
        1
 93
        3
 72
     1
 10
285.4258224558965
 20
127.5483900727025
 11
285.8768770753856
 21
127.5483900727025
 72
     1
 10
285.8768770753856
 20
127.5483900727025
 11
285.6513497656409
 21
128.9015539311687
 72
     1
 10
285.6513497656409
 20
128.9015539311687
 11
285.4258224558965
 21
127.5483900727025
 97
        1
330
2E0
 75
     2
 76
     1
 98
        1
 10
0.0
 20
0.0
450
        0
451
        0
460
0.0
461
0.0
452
        0
462
0.0
453
        0
470

  0
LWPOLYLINE
  5
2E2
330
2D9
100
AcDbEntity
  8
Dimensions(ISO)
100
AcDbPolyline
 90
        4
 70
     1
 43
0.0
 10
285.4258224558965
 20
69.76145264557588
 10
285.8768770753856
 20
69.76145264557588
 10
285.6513497656412
 20
68.40828878710972
 10
285.6513497656412
 20
68.40828878710972
  0
HATCH
  5
2E3
330
2D9
100
AcDbEntity
  8
Dimensions(ISO)
 62
    18
420
        0
440
 33554687
100
AcDbHatch
 10
0.0
 20
0.0
 30
0.0
210
0.0
220
0.0
230
1.0
  2
SOLID
 70
     1
 71
     1
 91
        1
 92
        1
 93
        3
 72
     1
 10
285.4258224558965
 20
69.76145264557588
 11
285.8768770753856
 21
69.76145264557588
 72
     1
 10
285.8768770753856
 20
69.76145264557588
 11
285.6513497656412
 21
68.40828878710972
 72
     1
 10
285.6513497656412
 20
68.40828878710972
 11
285.4258224558965
 21
69.76145264557588
 97
        1
330
2E2
 75
     2
 76
     1
 98
        1
 10
0.0
 20
0.0
450
        0
451
        0
460
0.0
461
0.0
452
        0
462
0.0
453
        0
470

  0
MTEXT
  5
2E4
330
2D9
100
AcDbEntity
  8
Dimensions(ISO)
100
AcDbMText
 10
285.2014330680768
 20
95.34095049699777
 30
0.0
 40
0.2
 41
0.0
 46
0.0
 71
     7
 72
     1
  1
\C18;\c0;\FArial|b0|i0|c1;\H1.894429;\W1.000000;37.25
 11
0.0000000000000001
 21
1.0
 31
0.0
 73
     1
 44
1.0
  0
ENDBLK
  5
2DC
330
2D9
100
AcDbEntity
  8
0
100
AcDbBlockEnd
  0
BLOCK
  5
2E7
330
2E5
100
AcDbEntity
  8
0
100
AcDbBlockBegin
  2
Block_46
 70
     0
 10
0.0
 20
0.0
 30
0.0
  3
Block_46
  1

  0
LINE
  5
2E9
330
2E5
100
AcDbEntity
  8
Dimensions(ISO)
 62
    18
420
        0
370
    25
100
AcDbLine
 10
310.3333224993331
 20
69.89676905627127
 30
0.0
 11
310.3333224993331
 21
60.51593390308251
 31
0.0
  0
LINE
  5
2EA
330
2E5
100
AcDbEntity
  8
Dimensions(ISO)
 62
    18
420
        0
370
    25
100
AcDbLine
 10
339.5611339320171
 20
69.89676905627127
 30
0.0
 11
339.5611339320171
 21
60.51593390308251
 31
0.0
  0
LINE
  5
2EB
330
2E5
100
AcDbEntity
  8
Dimensions(ISO)
 62
    18
420
        0
370
    25
100
AcDbLine
 10
311.6864863577996
 20
62.23445200333509
 30
0.0
 11
338.2079700735506
 21
62.23445200333509
 31
0.0
  0
LWPOLYLINE
  5
2EC
330
2E5
100
AcDbEntity
  8
Dimensions(ISO)
100
AcDbPolyline
 90
        4
 70
     1
 43
0.0
 10
311.6864863577996
 20
62.45997931307946
 10
311.6864863577996
 20
62.00892469359073
 10
310.3333224993331
 20
62.23445200333509
 10
310.3333224993331
 20
62.23445200333509
  0
HATCH
  5
2ED
330
2E5
100
AcDbEntity
  8
Dimensions(ISO)
 62
    18
420
        0
440
 33554687
100
AcDbHatch
 10
0.0
 20
0.0
 30
0.0
210
0.0
220
0.0
230
1.0
  2
SOLID
 70
     1
 71
     1
 91
        1
 92
        1
 93
        3
 72
     1
 10
311.6864863577996
 20
62.45997931307946
 11
311.6864863577996
 21
62.00892469359073
 72
     1
 10
311.6864863577996
 20
62.00892469359073
 11
310.3333224993331
 21
62.23445200333509
 72
     1
 10
310.3333224993331
 20
62.23445200333509
 11
311.6864863577996
 21
62.45997931307946
 97
        1
330
2EC
 75
     2
 76
     1
 98
        1
 10
0.0
 20
0.0
450
        0
451
        0
460
0.0
461
0.0
452
        0
462
0.0
453
        0
470

  0
LWPOLYLINE
  5
2EE
330
2E5
100
AcDbEntity
  8
Dimensions(ISO)
100
AcDbPolyline
 90
        4
 70
     1
 43
0.0
 10
338.2079700735506
 20
62.45997931307946
 10
338.2079700735506
 20
62.00892469359073
 10
339.5611339320171
 20
62.23445200333509
 10
339.5611339320171
 20
62.23445200333509
  0
HATCH
  5
2EF
330
2E5
100
AcDbEntity
  8
Dimensions(ISO)
 62
    18
420
        0
440
 33554687
100
AcDbHatch
 10
0.0
 20
0.0
 30
0.0
210
0.0
220
0.0
230
1.0
  2
SOLID
 70
     1
 71
     1
 91
        1
 92
        1
 93
        3
 72
     1
 10
338.2079700735506
 20
62.45997931307946
 11
338.2079700735506
 21
62.00892469359073
 72
     1
 10
338.2079700735506
 20
62.00892469359073
 11
339.5611339320171
 21
62.23445200333509
 72
     1
 10
339.5611339320171
 20
62.23445200333509
 11
338.2079700735506
 21
62.45997931307946
 97
        1
330
2EE
 75
     2
 76
     1
 98
        1
 10
0.0
 20
0.0
450
        0
451
        0
460
0.0
461
0.0
452
        0
462
0.0
453
        0
470

  0
MTEXT
  5
2F0
330
2E5
100
AcDbEntity
  8
Dimensions(ISO)
100
AcDbMText
 10
321.5550926252319
 20
62.68308171718513
 30
0.0
 40
0.2
 41
0.0
 46
0.0
 71
     7
 72
     1
  1
\C18;\c0;\FArial|b0|i0|c1;\H1.894429;\W1.000000;18.00
 73
     1
 44
1.0
  0
ENDBLK
  5
2E8
330
2E5
100
AcDbEntity
  8
0
100
AcDbBlockEnd
  0
BLOCK
  5
2F3
330
2F1
100
AcDbEntity
  8
0
100
AcDbBlockBegin
  2
Block_47
 70
     0
 10
0.0
 20
0.0
 30
0.0
  3
Block_47
  1

  0
LINE
  5
2F5
330
2F1
100
AcDbEntity
  8
Dimensions(ISO)
 62
    18
420
        0
370
    25
100
AcDbLine
 10
298.1545838174117
 20
69.16606054738917
 30
0.0
 11
298.1545838174117
 21
53.63253844695877
 31
0.0
  0
LINE
  5
2F6
330
2F1
100
AcDbEntity
  8
Dimensions(ISO)
 62
    18
420
        0
370
    25
100
AcDbLine
 10
351.7398726139385
 20
69.16606054738917
 30
0.0
 11
351.7398726139385
 21
53.63253844695877
 31
0.0
  0
LINE
  5
2F7
330
2F1
100
AcDbEntity
  8
Dimensions(ISO)
 62
    18
420
        0
370
    25
100
AcDbLine
 10
299.5077476758781
 20
55.35105654721136
 30
0.0
 11
350.386708755472
 21
55.35105654721136
 31
0.0
  0
LWPOLYLINE
  5
2F8
330
2F1
100
AcDbEntity
  8
Dimensions(ISO)
100
AcDbPolyline
 90
        4
 70
     1
 43
0.0
 10
299.5077476758781
 20
55.57658385695572
 10
299.5077476758781
 20
55.12552923746699
 10
298.1545838174117
 20
55.35105654721136
 10
298.1545838174117
 20
55.35105654721136
  0
HATCH
  5
2F9
330
2F1
100
AcDbEntity
  8
Dimensions(ISO)
 62
    18
420
        0
440
 33554687
100
AcDbHatch
 10
0.0
 20
0.0
 30
0.0
210
0.0
220
0.0
230
1.0
  2
SOLID
 70
     1
 71
     1
 91
        1
 92
        1
 93
        3
 72
     1
 10
299.5077476758781
 20
55.57658385695572
 11
299.5077476758781
 21
55.12552923746699
 72
     1
 10
299.5077476758781
 20
55.12552923746699
 11
298.1545838174117
 21
55.35105654721136
 72
     1
 10
298.1545838174117
 20
55.35105654721136
 11
299.5077476758781
 21
55.57658385695572
 97
        1
330
2F8
 75
     2
 76
     1
 98
        1
 10
0.0
 20
0.0
450
        0
451
        0
460
0.0
461
0.0
452
        0
462
0.0
453
        0
470

  0
LWPOLYLINE
  5
2FA
330
2F1
100
AcDbEntity
  8
Dimensions(ISO)
100
AcDbPolyline
 90
        4
 70
     1
 43
0.0
 10
350.386708755472
 20
55.57658385695572
 10
350.386708755472
 20
55.12552923746699
 10
351.7398726139385
 20
55.35105654721136
 10
351.7398726139385
 20
55.35105654721136
  0
HATCH
  5
2FB
330
2F1
100
AcDbEntity
  8
Dimensions(ISO)
 62
    18
420
        0
440
 33554687
100
AcDbHatch
 10
0.0
 20
0.0
 30
0.0
210
0.0
220
0.0
230
1.0
  2
SOLID
 70
     1
 71
     1
 91
        1
 92
        1
 93
        3
 72
     1
 10
350.386708755472
 20
55.57658385695572
 11
350.386708755472
 21
55.12552923746699
 72
     1
 10
350.386708755472
 20
55.12552923746699
 11
351.7398726139385
 21
55.35105654721136
 72
     1
 10
351.7398726139385
 20
55.35105654721136
 11
350.386708755472
 21
55.57658385695572
 97
        1
330
2FA
 75
     2
 76
     1
 98
        1
 10
0.0
 20
0.0
450
        0
451
        0
460
0.0
461
0.0
452
        0
462
0.0
453
        0
470

  0
MTEXT
  5
2FC
330
2F1
100
AcDbEntity
  8
Dimensions(ISO)
100
AcDbMText
 10
321.643610047356
 20
55.8009759551524
 30
0.0
 40
0.2
 41
0.0
 46
0.0
 71
     7
 72
     1
  1
\C18;\c0;\FArial|b0|i0|c1;\H1.894429;\W1.000000;33.00
 73
     1
 44
1.0
  0
ENDBLK
  5
2F4
330
2F1
100
AcDbEntity
  8
0
100
AcDbBlockEnd
  0
ENDSEC
  0
SECTION
  2
ENTITIES
  0
MTEXT
  5
78
330
70
100
AcDbEntity
  8
0
100
AcDbMText
 10
360.2071261035246
 20
1.024773090159337
 30
0.0
 40
0.2
 41
0.0
 46
0.0
 71
     7
 72
     1
  1
\C18;\c0;\FArial|b0|i0|c1;\H1.353164;\W1.000000;1
 73
     1
 44
1.0
  0
MTEXT
  5
79
330
70
100
AcDbEntity
  8
0
100
AcDbMText
 10
352.3587894830366
 20
1.059057425525598
 30
0.0
 40
0.2
 41
0.0
 46
0.0
 71
     7
 72
     1
  1
\C18;\c0;\FArial|b0|i0|c1;\H1.353164;\W1.000000;1
 73
     1
 44
1.0
  0
MTEXT
  5
7A
330
70
100
AcDbEntity
  8
0
100
AcDbMText
 10
334.5838839224305
 20
5.456002093646545
 30
0.0
 40
0.2
 41
0.0
 46
0.0
 71
     7
 72
     1
  1
\C18;\c0;\FArial|b0|i0|c1;\H1.353164;\W1.000000;3:1
 73
     1
 44
1.0
  0
MTEXT
  5
7B
330
70
100
AcDbEntity
  8
0
100
AcDbMText
 10
353.0144988131135
 20
5.88827780470401
 30
0.0
 40
0.2
 41
0.0
 46
0.0
 71
     7
 72
     1
  1
\C18;\c0;\FArial|b0|i0|c1;\H2.706328;\W1.000000;280HP
 73
     1
 44
1.0
  0
MTEXT
  5
7C
330
70
100
AcDbEntity
  8
0
100
AcDbMText
 10
322.2643947219513
 20
15.4198611644766
 30
0.0
 40
0.2
 41
0.0
 46
0.0
 71
     7
 72
     1
  1
\C18;\c0;\FArial|b0|i0|c1;\H2.706328;\W1.000000;HUSKY 120 PRO - TRACK
 73
     1
 44
1.0
  0
MTEXT
  5
7D
330
70
100
AcDbEntity
  8
0
100
AcDbMText
 10
277.8485657739081
 20
19.7714864257551
 30
0.0
 40
0.2
 41
0.0
 46
0.0
 71
     7
 72
     1
  1
\C18;\c0;\FArial|b0|i0|c1;\H1.894429;\W1.000000;ALUMINIUM
 73
     1
 44
1.0
  0
MTEXT
  5
7E
330
70
100
AcDbEntity
  8
0
100
AcDbMText
 10
277.8485657739081
 20
13.60284782705379
 30
0.0
 40
0.2
 41
0.0
 46
0.0
 71
     7
 72
     1
  1
\C18;\c0;\FArial|b0|i0|c1;\H1.894429;\W1.000000;ANODISED
 73
     1
 44
1.0
  0
MTEXT
  5
7F
330
70
100
AcDbEntity
  8
0
100
AcDbMText
 10
289.933616226616
 20
26.7900448838122
 30
0.0
 40
0.2
 41
0.0
 46
0.0
 71
     7
 72
     1
  1
\C18;\c0;\FArial|b0|i0|c1;\H1.082531;\W1.000000;1
 73
     1
 44
1.0
  0
MTEXT
  5
80
330
70
100
AcDbEntity
  8
0
100
AcDbMText
 10
294.3911176157469
 20
26.79207156889063
 30
0.0
 40
0.2
 41
0.0
 46
0.0
 71
     7
 72
     1
  1
\C18;\c0;\FArial|b0|i0|c1;\H1.082531;\W1.000000;N/A
 73
     1
 44
1.0
  0
MTEXT
  5
81
330
70
100
AcDbEntity
  8
0
100
AcDbMText
 10
298.6314703300731
 20
26.8114690713611
 30
0.0
 40
0.2
 41
0.0
 46
0.0
 71
     7
 72
     1
  1
\C18;\c0;\FArial|b0|i0|c1;\H1.082531;\W0.850000;28/03/23
 73
     1
 44
1.0
  0
MTEXT
  5
82
330
70
100
AcDbEntity
  8
0
100
AcDbMText
 10
305.5151371509975
 20
26.75401672118286
 30
0.0
 40
0.2
 41
0.0
 46
0.0
 71
     7
 72
     1
  1
\C18;\c0;\FArial|b0|i0|c1;\H1.082531;\W1.000000;AC
 73
     1
 44
1.0
  0
INSERT
  5
84
330
70
100
AcDbEntity
  8
0
100
AcDbBlockReference
  2
Block_0
 10
0.0
 20
0.0
 30
0.0
  0
INSERT
  5
88
330
70
100
AcDbEntity
  8
0
100
AcDbBlockReference
  2
Block_1
 10
0.0
 20
0.0
 30
0.0
  0
MTEXT
  5
8B
330
70
100
AcDbEntity
  8
0
100
AcDbMText
 10
321.0744802731928
 20
26.83290133335254
 30
0.0
 40
0.2
 41
0.0
 46
0.0
 71
     7
 72
     1
  1
\C18;\c0;\FArial|b0|i0|c1;\H1.082531;\W1.000000;CUSTOMER DRAWING
 73
     1
 44
1.0
  0
INSERT
  5
8D
330
70
100
AcDbEntity
  8
0
100
AcDbBlockReference
  2
Block_2
 10
0.0
 20
0.0
 30
0.0
  0
INSERT
  5
91
330
70
100
AcDbEntity
  8
0
100
AcDbBlockReference
  2
Block_3
 10
0.0
 20
0.0
 30
0.0
  0
INSERT
  5
95
330
70
100
AcDbEntity
  8
0
100
AcDbBlockReference
  2
Block_4
 10
0.0
 20
0.0
 30
0.0
  0
INSERT
  5
99
330
70
100
AcDbEntity
  8
0
100
AcDbBlockReference
  2
Block_5
 10
0.0
 20
0.0
 30
0.0
  0
INSERT
  5
9D
330
70
100
AcDbEntity
  8
0
100
AcDbBlockReference
  2
Block_6
 10
0.0
 20
0.0
 30
0.0
  0
INSERT
  5
A1
330
70
100
AcDbEntity
  8
0
100
AcDbBlockReference
  2
Block_7
 10
0.0
 20
0.0
 30
0.0
  0
INSERT
  5
A5
330
70
100
AcDbEntity
  8
0
100
AcDbBlockReference
  2
Block_8
 10
0.0
 20
0.0
 30
0.0
  0
INSERT
  5
A9
330
70
100
AcDbEntity
  8
0
100
AcDbBlockReference
  2
Block_9
 10
0.0
 20
0.0
 30
0.0
  0
INSERT
  5
AD
330
70
100
AcDbEntity
  8
0
100
AcDbBlockReference
  2
Block_10
 10
0.0
 20
0.0
 30
0.0
  0
INSERT
  5
B1
330
70
100
AcDbEntity
  8
0
100
AcDbBlockReference
  2
Block_11
 10
0.0
 20
0.0
 30
0.0
  0
INSERT
  5
B5
330
70
100
AcDbEntity
  8
0
100
AcDbBlockReference
  2
Block_12
 10
0.0
 20
0.0
 30
0.0
  0
INSERT
  5
B9
330
70
100
AcDbEntity
  8
0
100
AcDbBlockReference
  2
Block_13
 10
0.0
 20
0.0
 30
0.0
  0
INSERT
  5
BD
330
70
100
AcDbEntity
  8
0
100
AcDbBlockReference
  2
Block_14
 10
0.0
 20
0.0
 30
0.0
  0
INSERT
  5
C1
330
70
100
AcDbEntity
  8
0
100
AcDbBlockReference
  2
Block_15
 10
0.0
 20
0.0
 30
0.0
  0
LINE
  5
C5
330
70
100
AcDbEntity
  8
Sketch Geometry(ISO)
 62
    18
420
        0
370
    25
100
AcDbLine
 10
268.1057766244032
 20
0.0
 30
0.0
 11
373.1112920413928
 21
0.0
 31
0.0
  0
LINE
  5
C6
330
70
100
AcDbEntity
  8
Sketch Geometry(ISO)
 62
    18
420
        0
370
    25
100
AcDbLine
 10
373.1112920413928
 20
0.0
 30
0.0
 11
373.1112920413928
 21
149.9305555180729
 31
0.0
  0
LINE
  5
C7
330
70
100
AcDbEntity
  8
Sketch Geometry(ISO)
 62
    18
420
        0
370
    25
100
AcDbLine
 10
373.1112920413928
 20
149.9305555180729
 30
0.0
 11
268.1057766244032
 21
149.9305555180729
 31
0.0
  0
LINE
  5
C8
330
70
100
AcDbEntity
  8
Sketch Geometry(ISO)
 62
    18
420
        0
370
    25
100
AcDbLine
 10
268.1057766244032
 20
149.9305555180729
 30
0.0
 11
268.1057766244032
 21
0.0
 31
0.0
  0
LINE
  5
C9
330
70
100
AcDbEntity
  8
Sketch Geometry(ISO)
 62
    18
420
        0
370
    25
100
AcDbLine
 10
282.3300085057074
 20
143.1852195236809
 30
0.0
 11
287.5941703529495
 21
142.348982472796
 31
0.0
  0
LINE
  5
CA
330
70
100
AcDbEntity
  8
Sketch Geometry(ISO)
 62
    18
420
        0
370
    25
100
AcDbLine
 10
280.5548841222937
 20
144.5179000842073
 30
0.0
 11
289.2151328164784
 21
144.5179000842073
 31
0.0
  0
LINE
  5
CB
330
70
100
AcDbEntity
  8
Sketch Geometry(ISO)
 62
    18
420
        0
370
    25
100
AcDbLine
 10
275.1422286884284
 20
147.8934413539554
 30
0.0
 11
275.1422286884284
 21
141.1423588144592
 31
0.0
  0
CIRCLE
  5
CC
330
70
100
AcDbEntity
  8
Sketch Geometry(ISO)
 62
    18
420
        0
370
    25
100
AcDbCircle
 10
275.1422286884283
 20
144.5179000842074
 30
0.0
 40
1.353163858466398
  0
CIRCLE
  5
CD
330
70
100
AcDbEntity
  8
Sketch Geometry(ISO)
 62
    18
420
        0
370
    25
100
AcDbCircle
 10
275.1422286884284
 20
144.5179000842074
 30
0.0
 40
2.16506217354623
  0
LINE
  5
CE
330
70
100
AcDbEntity
  8
Sketch Geometry(ISO)
 62
    18
420
        0
370
    25
100
AcDbLine
 10
271.4032499676917
 20
144.5179000842073
 30
0.0
 11
278.8812074091648
 21
144.5179000842073
 31
0.0
  0
LINE
  5
CF
330
70
100
AcDbEntity
  8
Sketch Geometry(ISO)
 62
    18
420
        0
370
    25
100
AcDbLine
 10
282.3300085057074
 20
145.8774939393437
 30
0.0
 11
282.3300085057074
 21
143.1852195236809
 31
0.0
  0
LINE
  5
D0
330
70
100
AcDbEntity
  8
Sketch Geometry(ISO)
 62
    18
420
        0
370
    25
100
AcDbLine
 10
287.5913361863189
 20
146.6829622577537
 30
0.0
 11
287.5913361863189
 21
142.3528379106612
 31
0.0
  0
LINE
  5
D1
330
70
100
AcDbEntity
  8
Sketch Geometry(ISO)
 62
    18
420
        0
370
    25
100
AcDbLine
 10
282.3300085057074
 20
145.8774939393437
 30
0.0
 11
287.5913361863189
 21
146.6829622577537
 31
0.0
  0
LINE
  5
D2
330
70
100
AcDbEntity
  8
Sketch Geometry(ISO)
 62
    18
420
        0
370
    25
100
AcDbLine
 10
303.8293024879154
 20
23.27441836562165
 30
0.0
 11
303.8293024879154
 21
34.0997292333522
 31
0.0
  0
LINE
  5
D3
330
70
100
AcDbEntity
  8
Sketch Geometry(ISO)
 62
    18
420
        0
370
    25
100
AcDbLine
 10
309.2419579217806
 20
23.27441836562165
 30
0.0
 11
309.2419579217806
 21
34.0997292333522
 31
0.0
  0
LINE
  5
D4
330
70
100
AcDbEntity
  8
Sketch Geometry(ISO)
 62
    18
420
        0
370
    25
100
AcDbLine
 10
298.4166470540497
 20
23.27441836562165
 30
0.0
 11
298.4166470540497
 21
34.0997292333522
 31
0.0
  0
LINE
  5
D5
330
70
100
AcDbEntity
  8
Sketch Geometry(ISO)
 62
     5
420
      255
370
    25
100
AcDbLine
 10
288.1326017297054
 20
28.68707379948692
 30
0.0
 11
287.5913361863189
 21
28.68707379948692
 31
0.0
  0
LINE
  5
D6
330
70
100
AcDbEntity
  8
Sketch Geometry(ISO)
 62
    18
420
        0
370
    25
100
AcDbLine
 10
293.0039916201841
 20
23.27441836562165
 30
0.0
 11
293.0039916201841
 21
34.0997292333522
 31
0.0
  0
LINE
  5
D7
330
70
100
AcDbEntity
  8
Sketch Geometry(ISO)
 62
    18
420
        0
370
    25
100
AcDbLine
 10
287.5913361863189
 20
23.27441836562165
 30
0.0
 11
287.5913361863189
 21
34.0997292333522
 31
0.0
  0
LINE
  5
D8
330
70
100
AcDbEntity
  8
Sketch Geometry(ISO)
 62
    18
420
        0
370
    25
100
AcDbLine
 10
282.1786807524536
 20
10.82531086773119
 30
0.0
 11
268.1057766244032
 21
10.82531086773119
 31
0.0
  0
LINE
  5
D9
330
70
100
AcDbEntity
  8
Sketch Geometry(ISO)
 62
    18
420
        0
370
    25
100
AcDbLine
 10
290.838929446638
 20
23.27441836562165
 30
0.0
 11
268.1057766244032
 21
23.27441836562165
 31
0.0
  0
LINE
  5
DA
330
70
100
AcDbEntity
  8
Sketch Geometry(ISO)
 62
    18
420
        0
370
    25
100
AcDbLine
 10
290.2976639032515
 20
0.0
 30
0.0
 11
290.2976639032515
 21
10.82531086773119
 31
0.0
  0
LINE
  5
DB
330
70
100
AcDbEntity
  8
Sketch Geometry(ISO)
 62
    18
420
        0
370
    25
100
AcDbLine
 10
314.6546133556459
 20
23.27441836562165
 30
0.0
 11
314.6546133556459
 21
34.0997292333522
 31
0.0
  0
LINE
  5
DC
330
70
100
AcDbEntity
  8
Sketch Geometry(ISO)
 62
    18
420
        0
370
    25
100
AcDbLine
 10
320.0672687895115
 20
23.27441836562165
 30
0.0
 11
320.0672687895115
 21
34.0997292333522
 31
0.0
  0
LINE
  5
DD
330
70
100
AcDbEntity
  8
Sketch Geometry(ISO)
 62
    18
420
        0
370
    25
100
AcDbLine
 10
373.1112920413928
 20
28.68707379948692
 30
0.0
 11
288.1326017297054
 21
28.68707379948692
 31
0.0
  0
LINE
  5
DE
330
70
100
AcDbEntity
  8
Sketch Geometry(ISO)
 62
    18
420
        0
370
    25
100
AcDbLine
 10
287.5913361863189
 20
31.39340151641988
 30
0.0
 11
373.1112920413928
 21
31.39340151641988
 31
0.0
  0
LINE
  5
DF
330
70
100
AcDbEntity
  8
Sketch Geometry(ISO)
 62
    18
420
        0
370
    25
100
AcDbLine
 10
290.2976639032515
 20
23.27441836562165
 30
0.0
 11
373.1112920413928
 21
23.27441836562165
 31
0.0
  0
LINE
  5
E0
330
70
100
AcDbEntity
  8
Sketch Geometry(ISO)
 62
    18
420
        0
370
    25
100
AcDbLine
 10
287.5913361863189
 20
25.98074608255396
 30
0.0
 11
373.1112920413928
 21
25.98074608255396
 31
0.0
  0
LINE
  5
E1
330
70
100
AcDbEntity
  8
Sketch Geometry(ISO)
 62
    18
420
        0
370
    25
100
AcDbLine
 10
281.6374152090667
 20
10.82531086773119
 30
0.0
 11
373.1112920413928
 21
10.82531086773119
 31
0.0
  0
LINE
  5
E2
330
70
100
AcDbEntity
  8
Sketch Geometry(ISO)
 62
    18
420
        0
370
    25
100
AcDbLine
 10
268.1057766244032
 20
34.0997292333522
 30
0.0
 11
373.1112920413928
 21
34.0997292333522
 31
0.0
  0
LINE
  5
E3
330
70
100
AcDbEntity
  8
Sketch Geometry(ISO)
 62
    18
420
        0
370
    25
100
AcDbLine
 10
268.1057766244032
 20
0.0
 30
0.0
 11
373.1112920413928
 21
0.0
 31
0.0
  0
LINE
  5
E4
330
70
100
AcDbEntity
  8
Sketch Geometry(ISO)
 62
    18
420
        0
370
    25
100
AcDbLine
 10
268.1057766244032
 20
34.0997292333522
 30
0.0
 11
268.1057766244032
 21
0.0
 31
0.0
  0
LINE
  5
E5
330
70
100
AcDbEntity
  8
Sketch Geometry(ISO)
 62
    18
420
        0
370
    25
100
AcDbLine
 10
373.1112920413928
 20
0.0
 30
0.0
 11
373.1112920413928
 21
34.0997292333522
 31
0.0
  0
LINE
  5
E6
330
70
100
AcDbEntity
  8
Sketch Geometry(ISO)
 62
    18
420
        0
370
    25
100
AcDbLine
 10
327.6449863969232
 20
0.0
 30
0.0
 11
327.6449863969232
 21
10.82531086773119
 31
0.0
  0
LINE
  5
E7
330
70
100
AcDbEntity
  8
Sketch Geometry(ISO)
 62
    18
420
        0
370
    25
100
AcDbLine
 10
317.3609410725788
 20
10.82531086773119
 30
0.0
 11
317.3609410725788
 21
23.27441836562165
 31
0.0
  0
LINE
  5
E8
330
70
100
AcDbEntity
  8
Sketch Geometry(ISO)
 62
    18
420
        0
370
    25
100
AcDbLine
 10
343.8829526985196
 20
0.0
 30
0.0
 11
343.8829526985196
 21
10.82531086773119
 31
0.0
  0
LINE
  5
E9
330
70
100
AcDbEntity
  8
Sketch Geometry(ISO)
 62
    18
420
        0
370
    18
100
AcDbLine
 10
297.5730964979316
 20
9.887224344273588
 30
0.0
 11
297.283548660067
 21
9.887224344274232
 31
0.0
  0
LINE
  5
EA
330
70
100
AcDbEntity
  8
Sketch Geometry(ISO)
 62
    18
420
        0
370
    18
100
AcDbLine
 10
297.283548660067
 20
9.887224344274232
 30
0.0
 11
297.283548660067
 21
9.996790475425569
 31
0.0
  0
SPLINE
  5
EB
330
70
100
AcDbEntity
  8
Sketch Geometry(ISO)
 62
    18
420
        0
370
    18
100
AcDbSpline
210
0.0
220
0.0
230
1.0
 70
     8
 71
     3
 72
     8
 73
     4
 74
     0
 42
0.0000000001
 43
0.0000000001
 40
0.0
 40
0.0
 40
0.0
 40
0.0
 40
1.0
 40
1.0
 40
1.0
 40
1.0
 10
297.7392051792627
 20
9.651600023561872
 30
0.0
 10
297.7428149767672
 20
9.758467426719185
 30
0.0
 10
297.6749631284315
 20
9.85471492892668
 30
0.0
 10
297.5730964979316
 20
9.887224344273588
 30
0.0
  0
LINE
  5
EC
330
70
100
AcDbEntity
  8
Sketch Geometry(ISO)
 62
    18
420
        0
370
    18
100
AcDbLine
 10
297.1964476784507
 20
7.167166564106602
 30
0.0
 11
297.1964476784507
 21
7.288317792250929
 31
0.0
  0
LINE
  5
ED
330
70
100
AcDbEntity
  8
Sketch Geometry(ISO)
 62
     1
420
 16711680
370
    18
100
AcDbLine
 10
297.1637750582397
 20
6.123353584488907
 30
0.0
 11
297.1637750582397
 21
6.28694374500964
 31
0.0
  0
LINE
  5
EE
330
70
100
AcDbEntity
  8
Sketch Geometry(ISO)
 62
    18
420
        0
370
    18
100
AcDbLine
 10
297.7392051792627
 20
9.667727913005915
 30
0.0
 11
297.7392051792627
 21
7.501543953785203
 31
0.0
  0
LINE
  5
EF
330
70
100
AcDbEntity
  8
Sketch Geometry(ISO)
 62
    18
420
        0
370
    18
100
AcDbLine
 10
298.1365812066428
 20
8.730664439792095
 30
0.0
 11
298.9653971912254
 21
8.730664439792095
 31
0.0
  0
LINE
  5
F0
330
70
100
AcDbEntity
  8
Sketch Geometry(ISO)
 62
    18
420
        0
370
    18
100
AcDbLine
 10
299.1818778927258
 20
8.182688308961809
 30
0.0
 11
299.1818778927258
 21
8.326990338150153
 31
0.0
  0
SPLINE
  5
F1
330
70
100
AcDbEntity
  8
Sketch Geometry(ISO)
 62
    18
420
        0
370
    18
100
AcDbSpline
210
0.0
220
0.0
230
1.0
 70
     8
 71
     3
 72
     8
 73
     4
 74
     0
 42
0.0000000001
 43
0.0000000001
 40
0.0
 40
0.0
 40
0.0
 40
0.0
 40
1.0
 40
1.0
 40
1.0
 40
1.0
 10
299.1818778927258
 20
8.326990338150153
 30
0.0
 10
299.1818778927258
 20
8.439118342414102
 30
0.0
 10
299.0975200958632
 20
8.533292790522018
 30
0.0
 10
298.9860680600423
 20
8.545586408849482
 30
0.0
  0
LINE
  5
F2
330
70
100
AcDbEntity
  8
Sketch Geometry(ISO)
 62
    18
420
        0
370
    18
100
AcDbLine
 10
299.2907473254096
 20
9.064530691688934
 30
0.0
 11
299.2907473254096
 21
8.182688308961809
 31
0.0
  0
LINE
  5
F3
330
70
100
AcDbEntity
  8
Sketch Geometry(ISO)
 62
    18
420
        0
370
    18
100
AcDbLine
 10
298.1365812066428
 20
9.808263337653592
 30
0.0
 11
298.1365812066428
 21
8.730664439792095
 31
0.0
  0
LINE
  5
F4
330
70
100
AcDbEntity
  8
Sketch Geometry(ISO)
 62
    18
420
        0
370
    18
100
AcDbLine
 10
297.283548660067
 20
9.996790475425569
 30
0.0
 11
299.4441927129919
 21
9.996790475423644
 31
0.0
  0
LINE
  5
F5
330
70
100
AcDbEntity
  8
Sketch Geometry(ISO)
 62
    18
420
        0
370
    18
100
AcDbLine
 10
298.1365812066428
 20
9.808263337653592
 30
0.0
 11
299.0864068330639
 21
9.808263337653592
 31
0.0
  0
SPLINE
  5
F6
330
70
100
AcDbEntity
  8
Sketch Geometry(ISO)
 62
    18
420
        0
370
    18
100
AcDbSpline
210
0.0
220
0.0
230
1.0
 70
     8
 71
     3
 72
    11
 73
     7
 74
     0
 42
0.0000000001
 43
0.0000000001
 40
0.0
 40
0.0
 40
0.0
 40
0.0
 40
1.0
 40
1.0
 40
1.0
 40
2.0
 40
2.0
 40
2.0
 40
2.0
 10
299.3433918748234
 20
9.615500339028152
 30
0.0
 10
299.3267787230654
 20
9.738853768532411
 30
0.0
 10
299.213313390256
 20
9.82538386042642
 30
0.0
 10
299.0899599607517
 20
9.80877070866841
 30
0.0
 10
299.0887742568911
 20
9.808611018919616
 30
0.0
 10
299.0875898434447
 20
9.808441889885761
 30
0.0
 10
299.0864068330639
 20
9.808263337653592
 30
0.0
  0
LINE
  5
F7
330
70
100
AcDbEntity
  8
Sketch Geometry(ISO)
 62
    18
420
        0
370
    18
100
AcDbLine
 10
299.5143150351966
 20
9.343776333782072
 30
0.0
 11
299.4011999730897
 21
9.331629750231616
 31
0.0
  0
LINE
  5
F8
330
70
100
AcDbEntity
  8
Sketch Geometry(ISO)
 62
    18
420
        0
370
    18
100
AcDbLine
 10
299.4011999730897
 20
9.331629750231616
 30
0.0
 11
299.3433918748234
 21
9.615500339028152
 31
0.0
  0
LINE
  5
F9
330
70
100
AcDbEntity
  8
Sketch Geometry(ISO)
 62
    18
420
        0
370
    18
100
AcDbLine
 10
299.4441927129919
 20
9.996790475423644
 30
0.0
 11
299.5143150351966
 21
9.343776333782072
 31
0.0
  0
LINE
  5
FA
330
70
100
AcDbEntity
  8
Sketch Geometry(ISO)
 62
    18
420
        0
370
    18
100
AcDbLine
 10
299.1818778927258
 20
9.064530691688934
 30
0.0
 11
299.2907473254096
 21
9.064530691688934
 31
0.0
  0
LINE
  5
FB
330
70
100
AcDbEntity
  8
Sketch Geometry(ISO)
 62
    18
420
        0
370
    18
100
AcDbLine
 10
300.3933790457804
 20
7.281782080673994
 30
0.0
 11
300.3933790457804
 21
7.167166564106602
 31
0.0
  0
LINE
  5
FC
330
70
100
AcDbEntity
  8
Sketch Geometry(ISO)
 62
    18
420
        0
370
    18
100
AcDbLine
 10
300.5897325880217
 20
7.281782080673994
 30
0.0
 11
300.3933790457804
 21
7.281782080673994
 31
0.0
  0
LINE
  5
FD
330
70
100
AcDbEntity
  8
Sketch Geometry(ISO)
 62
    18
420
        0
370
    18
100
AcDbLine
 10
299.6727787759054
 20
7.869843687343704
 30
0.0
 11
299.6146261865327
 21
7.167166564106602
 31
0.0
  0
LINE
  5
FE
330
70
100
AcDbEntity
  8
Sketch Geometry(ISO)
 62
    18
420
        0
370
    18
100
AcDbLine
 10
303.2184225853444
 20
9.704484781528952
 30
0.0
 11
303.2184225853444
 21
7.806100102976858
 31
0.0
  0
LINE
  5
FF
330
70
100
AcDbEntity
  8
Sketch Geometry(ISO)
 62
    18
420
        0
370
    18
100
AcDbLine
 10
303.3277174944601
 20
7.128281050222205
 30
0.0
 11
303.4315095196189
 21
7.128281050222205
 31
0.0
  0
LINE
  5
100
330
70
100
AcDbEntity
  8
Sketch Geometry(ISO)
 62
    18
420
        0
370
    18
100
AcDbLine
 10
303.2184225853444
 20
7.806100102976858
 30
0.0
 11
301.1195719254284
 21
9.99679047542172
 31
0.0
  0
LINE
  5
101
330
70
100
AcDbEntity
  8
Sketch Geometry(ISO)
 62
    18
420
        0
370
    18
100
AcDbLine
 10
303.3277174944601
 20
7.128281050222205
 30
0.0
 11
301.0015550482592
 21
9.55622972373079
 31
0.0
  0
LINE
  5
102
330
70
100
AcDbEntity
  8
Sketch Geometry(ISO)
 62
    18
420
        0
370
    18
100
AcDbLine
 10
301.4590281828489
 20
7.167166564106602
 30
0.0
 11
301.4590281828489
 21
7.281782080673994
 31
0.0
  0
LINE
  5
103
330
70
100
AcDbEntity
  8
Sketch Geometry(ISO)
 62
    18
420
        0
370
    18
100
AcDbLine
 10
301.4590281828489
 20
7.281782080673994
 30
0.0
 11
301.2131275964589
 21
7.281782080673994
 31
0.0
  0
LINE
  5
104
330
70
100
AcDbEntity
  8
Sketch Geometry(ISO)
 62
    18
420
        0
370
    18
100
AcDbLine
 10
301.0015550482592
 20
9.55622972373079
 30
0.0
 11
301.0015550482592
 21
7.4813710666569
 31
0.0
  0
SPLINE
  5
105
330
70
100
AcDbEntity
  8
Sketch Geometry(ISO)
 62
    18
420
        0
370
    18
100
AcDbSpline
210
0.0
220
0.0
230
1.0
 70
     8
 71
     3
 72
     8
 73
     4
 74
     0
 42
0.0000000001
 43
0.0000000001
 40
0.0
 40
0.0
 40
0.0
 40
0.0
 40
1.0
 40
1.0
 40
1.0
 40
1.0
 10
301.0015550482592
 20
7.4813710666569
 30
0.0
 10
301.0080928331334
 20
7.369309136811515
 30
0.0
 10
301.1008751187505
 20
7.281782080673994
 30
0.0
 10
301.2131275964589
 20
7.281782080673994
 30
0.0
  0
LINE
  5
106
330
70
100
AcDbEntity
  8
Sketch Geometry(ISO)
 62
    18
420
        0
370
    18
100
AcDbLine
 10
300.7695493449634
 20
7.445108045539067
 30
0.0
 11
300.7695493449634
 21
9.790241118546566
 31
0.0
  0
LINE
  5
107
330
70
100
AcDbEntity
  8
Sketch Geometry(ISO)
 62
    18
420
        0
370
    18
100
AcDbLine
 10
303.8528099794393
 20
9.99679047542172
 30
0.0
 11
303.8528099794393
 21
9.879739854242982
 31
0.0
  0
LINE
  5
108
330
70
100
AcDbEntity
  8
Sketch Geometry(ISO)
 62
    18
420
        0
370
    18
100
AcDbLine
 10
303.0537249739978
 20
9.879739854242982
 30
0.0
 11
302.7668250801698
 21
9.879739854242982
 31
0.0
  0
LINE
  5
109
330
70
100
AcDbEntity
  8
Sketch Geometry(ISO)
 62
    18
420
        0
370
    18
100
AcDbLine
 10
302.7668250801698
 20
9.879739854242982
 30
0.0
 11
302.7668250801698
 21
9.99679047542172
 31
0.0
  0
SPLINE
  5
10A
330
70
100
AcDbEntity
  8
Sketch Geometry(ISO)
 62
    18
420
        0
370
    18
100
AcDbSpline
210
0.0
220
0.0
230
1.0
 70
     8
 71
     3
 72
     8
 73
     4
 74
     0
 42
0.0000000001
 43
0.0000000001
 40
0.0
 40
0.0
 40
0.0
 40
0.0
 40
1.0
 40
1.0
 40
1.0
 40
1.0
 10
303.6144892872885
 20
9.879739854242982
 30
0.0
 10
303.5127456962974
 20
9.877353662528093
 30
0.0
 10
303.4315095196189
 20
9.794189915757623
 30
0.0
 10
303.4315095196189
 20
9.692418346944442
 30
0.0
  0
LINE
  5
10B
330
70
100
AcDbEntity
  8
Sketch Geometry(ISO)
 62
    18
420
        0
370
    18
100
AcDbLine
 10
302.7668250801698
 20
9.99679047542172
 30
0.0
 11
303.8528099794393
 21
9.99679047542172
 31
0.0
  0
SPLINE
  5
10C
330
70
100
AcDbEntity
  8
Sketch Geometry(ISO)
 62
    18
420
        0
370
    18
100
AcDbSpline
210
0.0
220
0.0
230
1.0
 70
     8
 71
     3
 72
     8
 73
     4
 74
     0
 42
0.0000000001
 43
0.0000000001
 40
0.0
 40
0.0
 40
0.0
 40
0.0
 40
1.0
 40
1.0
 40
1.0
 40
1.0
 10
303.2184225853444
 20
9.647772373092353
 30
0.0
 10
303.2334000358275
 20
9.756456533398507
 30
0.0
 10
303.1612703208505
 20
9.858047249636054
 30
0.0
 10
303.0537249739975
 20
9.879739854242982
 30
0.0
  0
LINE
  5
10D
330
70
100
AcDbEntity
  8
Sketch Geometry(ISO)
 62
    18
420
        0
370
    18
100
AcDbLine
 10
304.810468609026
 20
7.48115933548627
 30
0.0
 11
304.810468609026
 21
9.633849659373771
 31
0.0
  0
LINE
  5
10E
330
70
100
AcDbEntity
  8
Sketch Geometry(ISO)
 62
    18
420
        0
370
    18
100
AcDbLine
 10
303.4315095196189
 20
7.128281050222205
 30
0.0
 11
303.4315095196189
 21
9.692418346944442
 31
0.0
  0
SPLINE
  5
10F
330
70
100
AcDbEntity
  8
Sketch Geometry(ISO)
 62
    18
420
        0
370
    18
100
AcDbSpline
210
0.0
220
0.0
230
1.0
 70
     8
 71
     3
 72
     8
 73
     4
 74
     0
 42
0.0000000001
 43
0.0000000001
 40
0.0
 40
0.0
 40
0.0
 40
0.0
 40
1.0
 40
1.0
 40
1.0
 40
1.0
 10
304.810468609026
 20
9.633849659373771
 30
0.0
 10
304.810468609026
 20
9.779693854170222
 30
0.0
 10
304.7003455488091
 20
9.901996078073599
 30
0.0
 10
304.5553000775579
 20
9.917238795195522
 30
0.0
  0
LINE
  5
110
330
70
100
AcDbEntity
  8
Sketch Geometry(ISO)
 62
    18
420
        0
370
    18
100
AcDbLine
 10
304.5553000775579
 20
9.917238795195522
 30
0.0
 11
304.372952146117
 21
9.917238795195522
 31
0.0
  0
LINE
  5
111
330
70
100
AcDbEntity
  8
Sketch Geometry(ISO)
 62
    18
420
        0
370
    18
100
AcDbLine
 10
303.8528099794393
 20
9.879739854242982
 30
0.0
 11
303.6144892872885
 21
9.879739854242982
 31
0.0
  0
SPLINE
  5
112
330
70
100
AcDbEntity
  8
Sketch Geometry(ISO)
 62
    18
420
        0
370
    18
100
AcDbSpline
210
0.0
220
0.0
230
1.0
 70
     8
 71
     3
 72
     8
 73
     4
 74
     0
 42
0.0000000001
 43
0.0000000001
 40
0.0
 40
0.0
 40
0.0
 40
0.0
 40
1.0
 40
1.0
 40
1.0
 40
1.0
 10
300.589732588022
 20
7.281782080673994
 30
0.0
 10
300.6827922901001
 20
7.281782080673994
 30
0.0
 10
300.7606254079698
 20
7.352477211042767
 30
0.0
 10
300.7695493449634
 20
7.445108045539067
 30
0.0
  0
LINE
  5
113
330
70
100
AcDbEntity
  8
Sketch Geometry(ISO)
 62
    18
420
        0
370
    18
100
AcDbLine
 10
297.1964476784507
 20
7.288317792250929
 30
0.0
 11
297.5401730488134
 21
7.288317792250929
 31
0.0
  0
LINE
  5
114
330
70
100
AcDbEntity
  8
Sketch Geometry(ISO)
 62
    18
420
        0
370
    18
100
AcDbLine
 10
299.6146261865327
 20
7.167166564106602
 30
0.0
 11
297.1964476784507
 21
7.167166564106602
 31
0.0
  0
LINE
  5
115
330
70
100
AcDbEntity
  8
Sketch Geometry(ISO)
 62
    18
420
        0
370
    18
100
AcDbLine
 10
300.3933790457804
 20
7.167166564106602
 30
0.0
 11
301.4590281828489
 21
7.167166564106602
 31
0.0
  0
LINE
  5
116
330
70
100
AcDbEntity
  8
Sketch Geometry(ISO)
 62
    18
420
        0
370
    18
100
AcDbLine
 10
304.3963905280585
 20
7.171041671851461
 30
0.0
 11
304.3963905280585
 21
7.28432718618557
 31
0.0
  0
LINE
  5
117
330
70
100
AcDbEntity
  8
Sketch Geometry(ISO)
 62
    18
420
        0
370
    18
100
AcDbLine
 10
304.3963905280585
 20
7.28432718618557
 30
0.0
 11
304.5880873697425
 21
7.28432718618557
 31
0.0
  0
SPLINE
  5
118
330
70
100
AcDbEntity
  8
Sketch Geometry(ISO)
 62
    18
420
        0
370
    18
100
AcDbSpline
210
0.0
220
0.0
230
1.0
 70
     8
 71
     3
 72
     8
 73
     4
 74
     0
 42
0.0000000001
 43
0.0000000001
 40
0.0
 40
0.0
 40
0.0
 40
0.0
 40
1.0
 40
1.0
 40
1.0
 40
1.0
 10
304.5880873697425
 20
7.28432718618557
 30
0.0
 10
304.7012989271264
 20
7.28432718618557
 30
0.0
 10
304.7967202480343
 20
7.368785676227061
 30
0.0
 10
304.810468609026
 20
7.48115933548627
 30
0.0
  0
LINE
  5
119
330
70
100
AcDbEntity
  8
Sketch Geometry(ISO)
 62
     1
420
 16711680
370
    18
100
AcDbLine
 10
305.7878218777104
 20
6.123353584488907
 30
0.0
 11
297.1637750582397
 21
6.123353584488907
 31
0.0
  0
LINE
  5
11A
330
70
100
AcDbEntity
  8
Sketch Geometry(ISO)
 62
     1
420
 16711680
370
    18
100
AcDbLine
 10
297.1637750582397
 20
6.28694374500964
 30
0.0
 11
305.7878218777104
 21
6.28694374500964
 31
0.0
  0
LINE
  5
11B
330
70
100
AcDbEntity
  8
Sketch Geometry(ISO)
 62
     1
420
 16711680
370
    18
100
AcDbLine
 10
305.7878218777104
 20
6.28694374500964
 30
0.0
 11
305.7878218777104
 21
6.123353584488907
 31
0.0
  0
LINE
  5
11C
330
70
100
AcDbEntity
  8
Sketch Geometry(ISO)
 62
    18
420
        0
370
    18
100
AcDbLine
 10
304.372952146117
 20
9.917238795195522
 30
0.0
 11
304.372952146117
 21
9.999273133161556
 31
0.0
  0
LINE
  5
11D
330
70
100
AcDbEntity
  8
Sketch Geometry(ISO)
 62
    18
420
        0
370
    18
100
AcDbLine
 10
304.372952146117
 20
9.999273133161556
 30
0.0
 11
305.8730085903763
 21
9.999273133161556
 31
0.0
  0
LINE
  5
11E
330
70
100
AcDbEntity
  8
Sketch Geometry(ISO)
 62
    18
420
        0
370
    18
100
AcDbLine
 10
305.9628557211608
 20
7.171041671850819
 30
0.0
 11
304.3963905280585
 21
7.171041671851461
 31
0.0
  0
LINE
  5
11F
330
70
100
AcDbEntity
  8
Sketch Geometry(ISO)
 62
    18
420
        0
370
    18
100
AcDbLine
 10
305.1796231246055
 20
9.917238795195522
 30
0.0
 11
305.1796231246052
 21
7.454003706001946
 31
0.0
  0
LINE
  5
120
330
70
100
AcDbEntity
  8
Sketch Geometry(ISO)
 62
    18
420
        0
370
    18
100
AcDbLine
 10
305.8730085903759
 20
9.917238795195522
 30
0.0
 11
305.1796231246055
 21
9.917238795195522
 31
0.0
  0
SPLINE
  5
121
330
70
100
AcDbEntity
  8
Sketch Geometry(ISO)
 62
    18
420
        0
370
    18
100
AcDbSpline
210
0.0
220
0.0
230
1.0
 70
     8
 71
     3
 72
     8
 73
     4
 74
     0
 42
0.0000000001
 43
0.0000000001
 40
0.0
 40
0.0
 40
0.0
 40
0.0
 40
1.0
 40
1.0
 40
1.0
 40
1.0
 10
305.1796231246055
 20
7.454003706001946
 30
0.0
 10
305.185561512866
 20
7.35863493901212
 30
0.0
 10
305.2646401501053
 20
7.28432718618557
 30
0.0
 10
305.3601936229487
 20
7.28432718618557
 30
0.0
  0
LINE
  5
122
330
70
100
AcDbEntity
  8
Sketch Geometry(ISO)
 62
    18
420
        0
370
    18
100
AcDbLine
 10
305.3601936229487
 20
7.28432718618557
 30
0.0
 11
305.962855721149
 21
7.284327186184929
 31
0.0
  0
LINE
  5
123
330
70
100
AcDbEntity
  8
Sketch Geometry(ISO)
 62
    18
420
        0
370
    18
100
AcDbLine
 10
306.3808905780159
 20
6.123353584488907
 30
0.0
 11
306.7006711989305
 21
5.789580276596653
 31
0.0
  0
LINE
  5
124
330
70
100
AcDbEntity
  8
Sketch Geometry(ISO)
 62
     1
420
 16711680
370
    18
100
AcDbLine
 10
306.3808905780159
 20
6.319752594476677
 30
0.0
 11
306.7006711989305
 21
6.653525902368931
 31
0.0
  0
SPLINE
  5
125
330
70
100
AcDbEntity
  8
Sketch Geometry(ISO)
 62
    18
420
        0
370
    18
100
AcDbSpline
210
0.0
220
0.0
230
1.0
 70
     8
 71
     3
 72
    14
 73
    10
 74
     0
 42
0.0000000001
 43
0.0000000001
 40
0.0
 40
0.0
 40
0.0
 40
0.0
 40
1.0
 40
1.0
 40
1.0
 40
2.0
 40
2.0
 40
2.0
 40
3.0
 40
3.0
 40
3.0
 40
3.0
 10
305.9628557211608
 20
7.171041671850819
 30
0.0
 10
306.7461183019198
 20
7.124458686874706
 30
0.0
 10
307.4188410507895
 20
7.721655494538606
 30
0.0
 10
307.4654240357659
 20
8.504918075297515
 30
0.0
 10
307.5120070207424
 20
9.288180656056425
 30
0.0
 10
306.9148102130784
 20
9.960903404926133
 30
0.0
 10
306.1315476323196
 20
10.00748638990224
 30
0.0
 10
306.0452974952708
 20
10.01261594535058
 30
0.0
 10
305.9587592327474
 20
10.00986680169014
 30
0.0
 10
305.8730085903763
 20
9.999273133161556
 30
0.0
  0
SPLINE
  5
126
330
70
100
AcDbEntity
  8
Sketch Geometry(ISO)
 62
    18
420
        0
370
    18
100
AcDbSpline
210
0.0
220
0.0
230
1.0
 70
     8
 71
     3
 72
    11
 73
     7
 74
     0
 42
0.0000000001
 43
0.0000000001
 40
0.0
 40
0.0
 40
0.0
 40
0.0
 40
1.0
 40
1.0
 40
1.0
 40
2.0
 40
2.0
 40
2.0
 40
2.0
 10
305.962855721149
 20
7.284327186184929
 30
0.0
 10
306.6867925559375
 20
7.400615114937864
 30
0.0
 10
307.1793893224862
 20
8.081751866084166
 30
0.0
 10
307.0631013937336
 20
8.805688700872405
 30
0.0
 10
306.9669023855657
 20
9.404564321324535
 30
0.0
 10
306.4770489377292
 20
9.862088847655915
 30
0.0
 10
305.8730085903759
 20
9.917238795195522
 30
0.0
  0
LINE
  5
127
330
70
100
AcDbEntity
  8
Sketch Geometry(ISO)
 62
    18
420
        0
370
    18
100
AcDbLine
 10
308.1414688448327
 20
7.287367246521527
 30
0.0
 11
308.4851942151954
 21
7.287367246521527
 31
0.0
  0
LINE
  5
128
330
70
100
AcDbEntity
  8
Sketch Geometry(ISO)
 62
    18
420
        0
370
    18
100
AcDbLine
 10
308.1414688448327
 20
7.166216018377199
 30
0.0
 11
308.1414688448327
 21
7.287367246521527
 31
0.0
  0
LINE
  5
129
330
70
100
AcDbEntity
  8
Sketch Geometry(ISO)
 62
    18
420
        0
370
    18
100
AcDbLine
 10
308.3424838897908
 20
5.789580276597296
 30
0.0
 11
308.0756160811877
 21
6.068125458580143
 31
0.0
  0
LINE
  5
12A
330
70
100
AcDbEntity
  8
Sketch Geometry(ISO)
 62
     1
420
 16711680
370
    18
100
AcDbLine
 10
308.3424838897908
 20
6.653525902368931
 30
0.0
 11
308.0756160811877
 21
6.374980720385441
 31
0.0
  0
LINE
  5
12B
330
70
100
AcDbEntity
  8
Sketch Geometry(ISO)
 62
     1
420
 16711680
370
    18
100
AcDbLine
 10
306.7006711989305
 20
6.653525902368931
 30
0.0
 11
308.3424838897908
 21
6.653525902368931
 31
0.0
  0
LINE
  5
12C
330
70
100
AcDbEntity
  8
Sketch Geometry(ISO)
 62
    18
420
        0
370
    18
100
AcDbLine
 10
306.7006711989305
 20
5.789580276596653
 30
0.0
 11
308.3424838897908
 21
5.789580276597296
 31
0.0
  0
SPLINE
  5
12D
330
70
100
AcDbEntity
  8
Sketch Geometry(ISO)
 62
    18
420
        0
370
    18
100
AcDbSpline
210
0.0
220
0.0
230
1.0
 70
     8
 71
     3
 72
     8
 73
     4
 74
     0
 42
0.0000000001
 43
0.0000000001
 40
0.0
 40
0.0
 40
0.0
 40
0.0
 40
1.0
 40
1.0
 40
1.0
 40
1.0
 10
300.7695493449634
 20
9.790241118546566
 30
0.0
 10
300.6977844567956
 20
9.840197536193498
 30
0.0
 10
300.6144528378063
 20
9.871003363084023
 30
0.0
 10
300.527449869121
 20
9.879739854242982
 30
0.0
  0
LINE
  5
12E
330
70
100
AcDbEntity
  8
Sketch Geometry(ISO)
 62
    18
420
        0
370
    18
100
AcDbLine
 10
300.3966552789441
 20
9.99679047542172
 30
0.0
 11
301.1195719254284
 21
9.99679047542172
 31
0.0
  0
LINE
  5
12F
330
70
100
AcDbEntity
  8
Sketch Geometry(ISO)
 62
    18
420
        0
370
    18
100
AcDbLine
 10
299.1818778927258
 20
8.941587619950926
 30
0.0
 11
299.1818778927258
 21
9.064530691688934
 31
0.0
  0
LINE
  5
130
330
70
100
AcDbEntity
  8
Sketch Geometry(ISO)
 62
    18
420
        0
370
    18
100
AcDbLine
 10
300.5274498691213
 20
9.879739854242982
 30
0.0
 11
300.3966552789441
 21
9.879739854242982
 31
0.0
  0
LINE
  5
131
330
70
100
AcDbEntity
  8
Sketch Geometry(ISO)
 62
    18
420
        0
370
    18
100
AcDbLine
 10
300.3966552789441
 20
9.879739854242982
 30
0.0
 11
300.3966552789441
 21
9.99679047542172
 31
0.0
  0
SPLINE
  5
132
330
70
100
AcDbEntity
  8
Sketch Geometry(ISO)
 62
    18
420
        0
370
    18
100
AcDbSpline
210
0.0
220
0.0
230
1.0
 70
     8
 71
     3
 72
    11
 73
     7
 74
     0
 42
0.0000000001
 43
0.0000000001
 40
0.0
 40
0.0
 40
0.0
 40
0.0
 40
1.0
 40
1.0
 40
1.0
 40
2.0
 40
2.0
 40
2.0
 40
2.0
 10
298.9653971912254
 20
8.730664439792095
 30
0.0
 10
299.084996617561
 20
8.730664439792095
 30
0.0
 10
299.1819511090587
 20
8.827618931289801
 30
0.0
 10
299.1819511090587
 20
8.94721835762534
 30
0.0
 10
299.1819511090587
 20
8.949095508184303
 30
0.0
 10
299.1819267015512
 20
8.950972579401032
 30
0.0
 10
299.1818778927258
 20
8.952849095299754
 30
0.0
  0
LINE
  5
133
330
70
100
AcDbEntity
  8
Sketch Geometry(ISO)
 62
    18
420
        0
370
    18
100
AcDbLine
 10
296.3800042335659
 20
10.05252587388172
 30
0.0
 11
296.3800042335659
 21
9.912612897306132
 31
0.0
  0
SPLINE
  5
134
330
70
100
AcDbEntity
  8
Sketch Geometry(ISO)
 62
    18
420
        0
370
    18
100
AcDbSpline
210
0.0
220
0.0
230
1.0
 70
     8
 71
     3
 72
     8
 73
     4
 74
     0
 42
0.0000000001
 43
0.0000000001
 40
0.0
 40
0.0
 40
0.0
 40
0.0
 40
1.0
 40
1.0
 40
1.0
 40
1.0
 10
295.3667518089882
 20
9.562744155941281
 30
0.0
 10
295.3667518089882
 20
9.755971326239214
 30
0.0
 10
295.2101102379216
 20
9.912612897306132
 30
0.0
 10
295.0168830676233
 20
9.912612897306132
 30
0.0
  0
LINE
  5
135
330
70
100
AcDbEntity
  8
Sketch Geometry(ISO)
 62
    18
420
        0
370
    18
100
AcDbLine
 10
294.7350451614789
 20
9.912612897306132
 30
0.0
 11
294.7350451614789
 21
10.05252587388172
 31
0.0
  0
SPLINE
  5
136
330
70
100
AcDbEntity
  8
Sketch Geometry(ISO)
 62
    18
420
        0
370
    18
100
AcDbSpline
210
0.0
220
0.0
230
1.0
 70
     8
 71
     3
 72
    11
 73
     7
 74
     0
 42
0.0000000001
 43
0.0000000001
 40
0.0
 40
0.0
 40
0.0
 40
0.0
 40
1.0
 40
1.0
 40
1.0
 40
2.0
 40
2.0
 40
2.0
 40
2.0
 10
296.2828671770327
 20
9.912612897306132
 30
0.0
 10
296.0769772197417
 20
9.926687823656514
 30
0.0
 10
295.8986604493834
 20
9.771191017724978
 30
0.0
 10
295.8845855230327
 20
9.565301060434698
 30
0.0
 10
295.8840056408212
 20
9.556818463741212
 30
0.0
 10
295.883715446323
 20
9.548318546241798
 30
0.0
 10
295.883715446323
 20
9.539816151870081
 30
0.0
  0
LINE
  5
137
330
70
100
AcDbEntity
  8
Sketch Geometry(ISO)
 62
    18
420
        0
370
    18
100
AcDbLine
 10
296.3800042335659
 20
9.912612897306132
 30
0.0
 11
296.2318973599041
 21
9.912612897306132
 31
0.0
  0
LINE
  5
138
330
70
100
AcDbEntity
  8
Sketch Geometry(ISO)
 62
    18
420
        0
370
    18
100
AcDbLine
 10
294.7350451614789
 20
10.05252587388172
 30
0.0
 11
296.3800042335659
 21
10.05252587388172
 31
0.0
  0
LINE
  5
139
330
70
100
AcDbEntity
  8
Sketch Geometry(ISO)
 62
    18
420
        0
370
    18
100
AcDbLine
 10
294.7350451614789
 20
9.912612897306132
 30
0.0
 11
295.0168830676233
 21
9.912612897306132
 31
0.0
  0
LINE
  5
13A
330
70
100
AcDbEntity
  8
Sketch Geometry(ISO)
 62
    18
420
        0
370
    18
100
AcDbLine
 10
296.4465090143577
 20
6.270615873756147
 30
0.0
 11
296.4465090143577
 21
6.117742634887131
 31
0.0
  0
LINE
  5
13B
330
70
100
AcDbEntity
  8
Sketch Geometry(ISO)
 62
    18
420
        0
370
    18
100
AcDbLine
 10
295.883715446323
 20
9.539816151870081
 30
0.0
 11
295.883715446323
 21
6.641539384396279
 31
0.0
  0
LINE
  5
13C
330
70
100
AcDbEntity
  8
Sketch Geometry(ISO)
 62
    18
420
        0
370
    18
100
AcDbLine
 10
295.3667518089885
 20
9.562744155941281
 30
0.0
 11
295.3667518089882
 21
8.232445585023969
 31
0.0
  0
LINE
  5
13D
330
70
100
AcDbEntity
  8
Sketch Geometry(ISO)
 62
    18
420
        0
370
    18
100
AcDbLine
 10
296.2643303027203
 20
6.270615873756147
 30
0.0
 11
296.4465090143577
 21
6.270615873756147
 31
0.0
  0
SPLINE
  5
13E
330
70
100
AcDbEntity
  8
Sketch Geometry(ISO)
 62
    18
420
        0
370
    18
100
AcDbSpline
210
0.0
220
0.0
230
1.0
 70
     8
 71
     3
 72
     8
 73
     4
 74
     0
 42
0.0000000001
 43
0.0000000001
 40
0.0
 40
0.0
 40
0.0
 40
0.0
 40
1.0
 40
1.0
 40
1.0
 40
1.0
 10
295.883715446323
 20
6.641539384396279
 30
0.0
 10
295.8890391334272
 20
6.435154745226379
 30
0.0
 10
296.0578770127741
 20
6.270615873756147
 30
0.0
 10
296.2643303027203
 20
6.270615873756147
 30
0.0
  0
SPLINE
  5
13F
330
70
100
AcDbEntity
  8
Sketch Geometry(ISO)
 62
    18
420
        0
370
    18
100
AcDbSpline
210
0.0
220
0.0
230
1.0
 70
     8
 71
     3
 72
     8
 73
     4
 74
     0
 42
0.0000000001
 43
0.0000000001
 40
0.0
 40
0.0
 40
0.0
 40
0.0
 40
1.0
 40
1.0
 40
1.0
 40
1.0
 10
295.026105951966
 20
6.270615873756147
 30
0.0
 10
295.1988890766838
 20
6.285733339583704
 30
0.0
 10
295.3392745070382
 20
6.416381613740139
 30
0.0
 10
295.3667518089882
 20
6.587634478936691
 30
0.0
  0
LINE
  5
140
330
70
100
AcDbEntity
  8
Sketch Geometry(ISO)
 62
    18
420
        0
370
    18
100
AcDbLine
 10
294.6731794477728
 20
6.270615873756147
 30
0.0
 11
295.026105951966
 21
6.270615873756147
 31
0.0
  0
LINE
  5
141
330
70
100
AcDbEntity
  8
Sketch Geometry(ISO)
 62
    18
420
        0
370
    18
100
AcDbLine
 10
294.6731794477728
 20
6.117742634887131
 30
0.0
 11
294.6731794477728
 21
6.270615873756147
 31
0.0
  0
LINE
  5
142
330
70
100
AcDbEntity
  8
Sketch Geometry(ISO)
 62
    18
420
        0
370
    18
100
AcDbLine
 10
296.4465090143577
 20
6.117742634887131
 30
0.0
 11
294.6731794477728
 21
6.117742634887131
 31
0.0
  0
LINE
  5
143
330
70
100
AcDbEntity
  8
Sketch Geometry(ISO)
 62
    18
420
        0
370
    18
100
AcDbLine
 10
295.3667518089882
 20
8.000489041057223
 30
0.0
 11
295.3667518089882
 21
6.587634478936691
 31
0.0
  0
LINE
  5
144
330
70
100
AcDbEntity
  8
Sketch Geometry(ISO)
 62
    18
420
        0
370
    18
100
AcDbLine
 10
292.3491913627975
 20
9.615528928055733
 30
0.0
 11
292.3491913627972
 21
6.525838076662787
 31
0.0
  0
LINE
  5
145
330
70
100
AcDbEntity
  8
Sketch Geometry(ISO)
 62
    18
420
        0
370
    18
100
AcDbLine
 10
295.3667518089882
 20
8.000489041057223
 30
0.0
 11
292.9087339784969
 21
8.000489041057223
 31
0.0
  0
LINE
  5
146
330
70
100
AcDbEntity
  8
Sketch Geometry(ISO)
 62
    18
420
        0
370
    18
100
AcDbLine
 10
292.9087339784969
 20
8.232445585023969
 30
0.0
 11
295.3667518089882
 21
8.232445585023969
 31
0.0
  0
LINE
  5
147
330
70
100
AcDbEntity
  8
Sketch Geometry(ISO)
 62
    18
420
        0
370
    18
100
AcDbLine
 10
292.9087339784969
 20
8.232445585023969
 30
0.0
 11
292.9087339784969
 21
9.580540224950315
 31
0.0
  0
SPLINE
  5
148
330
70
100
AcDbEntity
  8
Sketch Geometry(ISO)
 62
    18
420
        0
370
    18
100
AcDbSpline
210
0.0
220
0.0
230
1.0
 70
     8
 71
     3
 72
     8
 73
     4
 74
     0
 42
0.0000000001
 43
0.0000000001
 40
0.0
 40
0.0
 40
0.0
 40
0.0
 40
1.0
 40
1.0
 40
1.0
 40
1.0
 10
292.3491913627975
 20
9.615528928055733
 30
0.0
 10
292.3491913627975
 20
9.767101380650668
 30
0.0
 10
292.2358369649666
 20
9.894725118707778
 30
0.0
 10
292.0853237238135
 20
9.912612897306132
 30
0.0
  0
LINE
  5
149
330
70
100
AcDbEntity
  8
Sketch Geometry(ISO)
 62
    18
420
        0
370
    18
100
AcDbLine
 10
291.9016813859267
 20
10.05252587388043
 30
0.0
 11
293.4377472494267
 21
10.05252587388172
 31
0.0
  0
SPLINE
  5
14A
330
70
100
AcDbEntity
  8
Sketch Geometry(ISO)
 62
    18
420
        0
370
    18
100
AcDbSpline
210
0.0
220
0.0
230
1.0
 70
     8
 71
     3
 72
    11
 73
     7
 74
     0
 42
0.0000000001
 43
0.0000000001
 40
0.0
 40
0.0
 40
0.0
 40
0.0
 40
1.0
 40
1.0
 40
1.0
 40
2.0
 40
2.0
 40
2.0
 40
2.0
 10
293.248476533668
 20
9.912612897306132
 30
0.0
 10
293.0650778608904
 20
9.916801042013879
 30
0.0
 10
292.9130086992042
 20
9.771522204543925
 30
0.0
 10
292.9088205544962
 20
9.588123531766347
 30
0.0
 10
292.9087628390441
 20
9.585596174648509
 30
0.0
 10
292.9087339784969
 20
9.583068240985902
 30
0.0
 10
292.9087339784969
 20
9.580540224950315
 30
0.0
  0
LINE
  5
14B
330
70
100
AcDbEntity
  8
Sketch Geometry(ISO)
 62
    18
420
        0
370
    18
100
AcDbLine
 10
293.4377472494267
 20
9.912612897306132
 30
0.0
 11
293.2333099200353
 21
9.912612897306132
 31
0.0
  0
LINE
  5
14C
330
70
100
AcDbEntity
  8
Sketch Geometry(ISO)
 62
    18
420
        0
370
    18
100
AcDbLine
 10
293.4377472494267
 20
10.05252587388172
 30
0.0
 11
293.4377472494267
 21
9.912612897306132
 31
0.0
  0
LINE
  5
14D
330
70
100
AcDbEntity
  8
Sketch Geometry(ISO)
 62
    18
420
        0
370
    18
100
AcDbLine
 10
291.8376752864003
 20
6.117743130381461
 30
0.0
 11
291.8376752864003
 21
6.270616369250477
 31
0.0
  0
LINE
  5
14E
330
70
100
AcDbEntity
  8
Sketch Geometry(ISO)
 62
    18
420
        0
370
    18
100
AcDbLine
 10
291.8376752864003
 20
6.270616369250477
 30
0.0
 11
292.0856797414104
 21
6.270616369250477
 31
0.0
  0
LINE
  5
14F
330
70
100
AcDbEntity
  8
Sketch Geometry(ISO)
 62
    18
420
        0
370
    18
100
AcDbLine
 10
292.9087339784969
 20
6.579835351012539
 30
0.0
 11
292.9087339784969
 21
8.000489041057223
 31
0.0
  0
LINE
  5
150
330
70
100
AcDbEntity
  8
Sketch Geometry(ISO)
 62
    18
420
        0
370
    18
100
AcDbLine
 10
293.2594345740996
 20
6.270616369250477
 30
0.0
 11
293.4352006287119
 21
6.270616369250477
 31
0.0
  0
LINE
  5
151
330
70
100
AcDbEntity
  8
Sketch Geometry(ISO)
 62
    18
420
        0
370
    18
100
AcDbLine
 10
293.4352006287119
 20
6.270616369250477
 30
0.0
 11
293.4352006287119
 21
6.117743130381461
 31
0.0
  0
SPLINE
  5
152
330
70
100
AcDbEntity
  8
Sketch Geometry(ISO)
 62
    18
420
        0
370
    18
100
AcDbSpline
210
0.0
220
0.0
230
1.0
 70
     8
 71
     3
 72
     8
 73
     4
 74
     0
 42
0.0000000001
 43
0.0000000001
 40
0.0
 40
0.0
 40
0.0
 40
0.0
 40
1.0
 40
1.0
 40
1.0
 40
1.0
 10
292.0856797414104
 20
6.270616369250477
 30
0.0
 10
292.2280077813433
 20
6.270616369250477
 30
0.0
 10
292.3446434153961
 20
6.38358271779845
 30
0.0
 10
292.3491913627975
 20
6.525838076662787
 30
0.0
  0
LINE
  5
153
330
70
100
AcDbEntity
  8
Sketch Geometry(ISO)
 62
    18
420
        0
370
    18
100
AcDbLine
 10
293.4352006287119
 20
6.117743130381461
 30
0.0
 11
291.8376752864003
 21
6.117743130381461
 31
0.0
  0
SPLINE
  5
154
330
70
100
AcDbEntity
  8
Sketch Geometry(ISO)
 62
    18
420
        0
370
    18
100
AcDbSpline
210
0.0
220
0.0
230
1.0
 70
     8
 71
     3
 72
     8
 73
     4
 74
     0
 42
0.0000000001
 43
0.0000000001
 40
0.0
 40
0.0
 40
0.0
 40
0.0
 40
1.0
 40
1.0
 40
1.0
 40
1.0
 10
292.9087339784969
 20
6.579835351012539
 30
0.0
 10
292.9310371506197
 20
6.403128810648887
 30
0.0
 10
293.0813260877944
 20
6.270616369250477
 30
0.0
 10
293.2594345740996
 20
6.270616369250477
 30
0.0
  0
LINE
  5
155
330
70
100
AcDbEntity
  8
Sketch Geometry(ISO)
 62
    18
420
        0
370
    18
100
AcDbLine
 10
292.0853237238135
 20
9.912612897306132
 30
0.0
 11
291.9016813859267
 21
9.912612897305489
 31
0.0
  0
LINE
  5
156
330
70
100
AcDbEntity
  8
Sketch Geometry(ISO)
 62
    18
420
        0
370
    18
100
AcDbLine
 10
291.9016813859267
 20
9.912612897305489
 30
0.0
 11
291.9016813859267
 21
10.05252587388043
 31
0.0
  0
SPLINE
  5
157
330
70
100
AcDbEntity
  8
Sketch Geometry(ISO)
 62
    18
420
        0
370
    18
100
AcDbSpline
210
0.0
220
0.0
230
1.0
 70
     8
 71
     3
 72
     8
 73
     4
 74
     0
 42
0.0000000001
 43
0.0000000001
 40
0.0
 40
0.0
 40
0.0
 40
0.0
 40
1.0
 40
1.0
 40
1.0
 40
1.0
 10
299.1472363079264
 20
7.351316430885852
 30
0.0
 10
299.2847411844325
 20
7.351316430885852
 30
0.0
 10
299.4107878093562
 20
7.427937548538715
 30
0.0
 10
299.4740907622155
 20
7.550004445042935
 30
0.0
  0
LINE
  5
158
330
70
100
AcDbEntity
  8
Sketch Geometry(ISO)
 62
    18
420
        0
370
    18
100
AcDbLine
 10
299.2907473254096
 20
8.182688308961809
 30
0.0
 11
299.1818778927258
 21
8.182688308961809
 31
0.0
  0
LINE
  5
159
330
70
100
AcDbEntity
  8
Sketch Geometry(ISO)
 62
    18
420
        0
370
    18
100
AcDbLine
 10
298.9860680600423
 20
8.545586408849482
 30
0.0
 11
298.1365812066432
 21
8.545586408849482
 31
0.0
  0
LINE
  5
15A
330
70
100
AcDbEntity
  8
Sketch Geometry(ISO)
 62
    18
420
        0
370
    18
100
AcDbLine
 10
299.5710117445032
 20
7.869843687343704
 30
0.0
 11
299.6727787759054
 21
7.869843687343704
 31
0.0
  0
LINE
  5
15B
330
70
100
AcDbEntity
  8
Sketch Geometry(ISO)
 62
    18
420
        0
370
    18
100
AcDbLine
 10
299.5710117445032
 20
7.869843687343704
 30
0.0
 11
299.4740907622155
 21
7.550004445042935
 31
0.0
  0
LINE
  5
15C
330
70
100
AcDbEntity
  8
Sketch Geometry(ISO)
 62
    18
420
        0
370
    18
100
AcDbLine
 10
298.3212111621672
 20
7.351316430885852
 30
0.0
 11
299.1472363079264
 21
7.351316430885852
 31
0.0
  0
SPLINE
  5
15D
330
70
100
AcDbEntity
  8
Sketch Geometry(ISO)
 62
    18
420
        0
370
    18
100
AcDbSpline
210
0.0
220
0.0
230
1.0
 70
     8
 71
     3
 72
    11
 73
     7
 74
     0
 42
0.0000000001
 43
0.0000000001
 40
0.0
 40
0.0
 40
0.0
 40
0.0
 40
1.0
 40
1.0
 40
1.0
 40
2.0
 40
2.0
 40
2.0
 40
2.0
 10
298.1365812066432
 20
7.554850494169093
 30
0.0
 10
298.1266256072473
 20
7.452882185370865
 30
0.0
 10
298.2012166460572
 20
7.362149930728463
 30
0.0
 10
298.3031849548551
 20
7.352194331332642
 30
0.0
 10
298.3091758887322
 20
7.351609410994686
 30
0.0
 10
298.3151917418859
 20
7.351316430885852
 30
0.0
 10
298.3212111621672
 20
7.351316430885852
 30
0.0
  0
SPLINE
  5
15E
330
70
100
AcDbEntity
  8
Sketch Geometry(ISO)
 62
    18
420
        0
370
    18
100
AcDbSpline
210
0.0
220
0.0
230
1.0
 70
     8
 71
     3
 72
    11
 73
     7
 74
     0
 42
0.0000000001
 43
0.0000000001
 40
0.0
 40
0.0
 40
0.0
 40
0.0
 40
1.0
 40
1.0
 40
1.0
 40
2.0
 40
2.0
 40
2.0
 40
2.0
 10
297.5401730488134
 20
7.288317792250929
 30
0.0
 10
297.6503563772047
 20
7.288317792250929
 30
0.0
 10
297.739677613126
 20
7.377639028172189
 30
0.0
 10
297.739677613126
 20
7.487822356563605
 30
0.0
 10
297.739677613126
 20
7.492400287969576
 30
0.0
 10
297.7395200418879
 20
7.496976863083022
 30
0.0
 10
297.7392051792627
 20
7.501543953785203
 30
0.0
  0
LINE
  5
15F
330
70
100
AcDbEntity
  8
Sketch Geometry(ISO)
 62
    18
420
        0
370
    18
100
AcDbLine
 10
298.1365812066432
 20
8.545586408849482
 30
0.0
 11
298.1365812066432
 21
7.554850494169093
 31
0.0
  0
SPLINE
  5
160
330
70
100
AcDbEntity
  8
Sketch Geometry(ISO)
 62
    18
420
        0
370
    18
100
AcDbSpline
210
0.0
220
0.0
230
1.0
 70
     8
 71
     3
 72
     8
 73
     4
 74
     0
 42
0.0000000001
 43
0.0000000001
 40
0.0
 40
0.0
 40
0.0
 40
0.0
 40
1.0
 40
1.0
 40
1.0
 40
1.0
 10
319.998821801112
 20
10.04546662847808
 30
0.0
 10
319.7957913846563
 20
10.04712878907934
 30
0.0
 10
319.5927475479067
 20
10.04507784116579
 30
0.0
 10
319.389792133356
 20
10.03931481344966
 30
0.0
  0
SPLINE
  5
161
330
70
100
AcDbEntity
  8
Sketch Geometry(ISO)
 62
    18
420
        0
370
    18
100
AcDbSpline
210
0.0
220
0.0
230
1.0
 70
     8
 71
     3
 72
     8
 73
     4
 74
     0
 42
0.0000000001
 43
0.0000000001
 40
0.0
 40
0.0
 40
0.0
 40
0.0
 40
1.0
 40
1.0
 40
1.0
 40
1.0
 10
319.5804206918207
 20
7.212229331714763
 30
0.0
 10
319.6050164729345
 20
7.211016786400923
 30
0.0
 10
319.6296195904439
 20
7.209957937206422
 30
0.0
 10
319.6542286035267
 20
7.209052846139281
 30
0.0
  0
LINE
  5
162
330
70
100
AcDbEntity
  8
Sketch Geometry(ISO)
 62
     1
420
 16711680
370
    18
100
AcDbLine
 10
320.7788752419354
 20
6.28694374500964
 30
0.0
 11
312.1548284224646
 21
6.28694374500964
 31
0.0
  0
LINE
  5
163
330
70
100
AcDbEntity
  8
Sketch Geometry(ISO)
 62
     1
420
 16711680
370
    18
100
AcDbLine
 10
312.1548284224646
 20
6.123353584488907
 30
0.0
 11
320.7788752419354
 21
6.123353584488907
 31
0.0
  0
SPLINE
  5
164
330
70
100
AcDbEntity
  8
Sketch Geometry(ISO)
 62
    18
420
        0
370
    18
100
AcDbSpline
210
0.0
220
0.0
230
1.0
 70
     8
 71
     3
 72
     8
 73
     4
 74
     0
 42
0.0000000001
 43
0.0000000001
 40
0.0
 40
0.0
 40
0.0
 40
0.0
 40
1.0
 40
1.0
 40
1.0
 40
1.0
 10
319.6358647263884
 20
7.104899044964231
 30
0.0
 10
319.7489796076668
 20
7.100066587542221
 30
0.0
 10
319.8622963576289
 20
7.106247501379983
 30
0.0
 10
319.9742145418082
 20
7.123354490048852
 30
0.0
  0
SPLINE
  5
165
330
70
100
AcDbEntity
  8
Sketch Geometry(ISO)
 62
    18
420
        0
370
    18
100
AcDbSpline
210
0.0
220
0.0
230
1.0
 70
     8
 71
     3
 72
     8
 73
     4
 74
     0
 42
0.0000000001
 43
0.0000000001
 40
0.0
 40
0.0
 40
0.0
 40
0.0
 40
1.0
 40
1.0
 40
1.0
 40
1.0
 10
319.6542286035267
 20
7.209052846139281
 30
0.0
 10
320.174508827805
 20
7.189917540638595
 30
0.0
 10
320.6402803687093
 20
7.529391991870956
 30
0.0
 10
320.7813500007656
 20
8.030547686843744
 30
0.0
  0
LINE
  5
166
330
70
100
AcDbEntity
  8
Sketch Geometry(ISO)
 62
    18
420
        0
370
    18
100
AcDbLine
 10
321.9855512855337
 20
9.908944640248147
 30
0.0
 11
321.8473639907065
 21
9.908944640248147
 31
0.0
  0
SPLINE
  5
167
330
70
100
AcDbEntity
  8
Sketch Geometry(ISO)
 62
    18
420
        0
370
    18
100
AcDbSpline
210
0.0
220
0.0
230
1.0
 70
     8
 71
     3
 72
     8
 73
     4
 74
     0
 42
0.0000000001
 43
0.0000000001
 40
0.0
 40
0.0
 40
0.0
 40
0.0
 40
1.0
 40
1.0
 40
1.0
 40
1.0
 10
322.3575198340122
 20
9.786974478081214
 30
0.0
 10
322.24662637107
 20
9.860075897379232
 30
0.0
 10
322.1181993956893
 20
9.902187680963937
 30
0.0
 10
321.9855512855337
 20
9.908944640248147
 30
0.0
  0
LINE
  5
168
330
70
100
AcDbEntity
  8
Sketch Geometry(ISO)
 62
    18
420
        0
370
    18
100
AcDbLine
 10
321.8473639907065
 20
9.908944640248147
 30
0.0
 11
321.8473639907065
 21
10.04498620851169
 31
0.0
  0
LINE
  5
169
330
70
100
AcDbEntity
  8
Sketch Geometry(ISO)
 62
    18
420
        0
370
    18
100
AcDbLine
 10
321.8473639907065
 20
10.04498620851169
 30
0.0
 11
322.8233219953938
 21
10.04498620851169
 31
0.0
  0
LINE
  5
16A
330
70
100
AcDbEntity
  8
Sketch Geometry(ISO)
 62
    18
420
        0
370
    18
100
AcDbLine
 10
321.8192734116132
 20
6.262371330100946
 30
0.0
 11
322.0103472119432
 21
6.262371330100946
 31
0.0
  0
SPLINE
  5
16B
330
70
100
AcDbEntity
  8
Sketch Geometry(ISO)
 62
    18
420
        0
370
    18
100
AcDbSpline
210
0.0
220
0.0
230
1.0
 70
     8
 71
     3
 72
     8
 73
     4
 74
     0
 42
0.0000000001
 43
0.0000000001
 40
0.0
 40
0.0
 40
0.0
 40
0.0
 40
1.0
 40
1.0
 40
1.0
 40
1.0
 10
322.0026447374157
 20
6.262371330100946
 30
0.0
 10
322.1823476468583
 20
6.260415194443551
 30
0.0
 10
322.3349717470449
 20
6.393484107868593
 30
0.0
 10
322.3575198340122
 20
6.571777534284048
 30
0.0
  0
LINE
  5
16C
330
70
100
AcDbEntity
  8
Sketch Geometry(ISO)
 62
    18
420
        0
370
    18
100
AcDbLine
 10
323.3057818229817
 20
6.11505968553453
 30
0.0
 11
321.8192734116132
 21
6.11505968553453
 31
0.0
  0
LINE
  5
16D
330
70
100
AcDbEntity
  8
Sketch Geometry(ISO)
 62
    18
420
        0
370
    18
100
AcDbLine
 10
322.3575198340122
 20
6.571777534284048
 30
0.0
 11
322.3575198340122
 21
9.786974478081214
 31
0.0
  0
LINE
  5
16E
330
70
100
AcDbEntity
  8
Sketch Geometry(ISO)
 62
    18
420
        0
370
    18
100
AcDbLine
 10
322.6732482529526
 20
9.477040936173837
 30
0.0
 11
322.6732482529526
 21
6.597782445037217
 31
0.0
  0
SPLINE
  5
16F
330
70
100
AcDbEntity
  8
Sketch Geometry(ISO)
 62
    18
420
        0
370
    18
100
AcDbSpline
210
0.0
220
0.0
230
1.0
 70
     8
 71
     3
 72
     8
 73
     4
 74
     0
 42
0.0000000001
 43
0.0000000001
 40
0.0
 40
0.0
 40
0.0
 40
0.0
 40
1.0
 40
1.0
 40
1.0
 40
1.0
 10
322.6732482529526
 20
6.597782445037217
 30
0.0
 10
322.6837210101174
 20
6.42399583432205
 30
0.0
 10
322.8172205348641
 20
6.282691189044675
 30
0.0
 10
322.9901325588506
 20
6.262371330100946
 30
0.0
  0
LINE
  5
170
330
70
100
AcDbEntity
  8
Sketch Geometry(ISO)
 62
    18
420
        0
370
    18
100
AcDbLine
 10
322.9901325588506
 20
6.262371330100946
 30
0.0
 11
323.3057818229817
 21
6.262371330100946
 31
0.0
  0
LINE
  5
171
330
70
100
AcDbEntity
  8
Sketch Geometry(ISO)
 62
    18
420
        0
370
    18
100
AcDbLine
 10
322.8233219953938
 20
10.04498620851169
 30
0.0
 11
325.7790285278872
 21
6.959946396881744
 31
0.0
  0
LINE
  5
172
330
70
100
AcDbEntity
  8
Sketch Geometry(ISO)
 62
    18
420
        0
370
    18
100
AcDbLine
 10
325.7790285278872
 20
6.959946396881744
 30
0.0
 11
325.7790285278866
 21
9.643400195954729
 31
0.0
  0
LINE
  5
173
330
70
100
AcDbEntity
  8
Sketch Geometry(ISO)
 62
    18
420
        0
370
    18
100
AcDbLine
 10
326.0938423634573
 20
6.08135027786932
 30
0.0
 11
325.9265823017526
 21
6.08135027786932
 31
0.0
  0
LINE
  5
174
330
70
100
AcDbEntity
  8
Sketch Geometry(ISO)
 62
    18
420
        0
370
    18
100
AcDbLine
 10
322.6732482529526
 20
9.477040936173837
 30
0.0
 11
325.9265823017526
 21
6.08135027786932
 31
0.0
  0
LINE
  5
175
330
70
100
AcDbEntity
  8
Sketch Geometry(ISO)
 62
    18
420
        0
370
    18
100
AcDbLine
 10
326.093842363456
 20
9.694986884244034
 30
0.0
 11
326.0938423634573
 21
6.08135027786932
 31
0.0
  0
SPLINE
  5
176
330
70
100
AcDbEntity
  8
Sketch Geometry(ISO)
 62
    18
420
        0
370
    18
100
AcDbSpline
210
0.0
220
0.0
230
1.0
 70
     8
 71
     3
 72
     8
 73
     4
 74
     0
 42
0.0000000001
 43
0.0000000001
 40
0.0
 40
0.0
 40
0.0
 40
0.0
 40
1.0
 40
1.0
 40
1.0
 40
1.0
 10
318.4913211739397
 20
8.703261062065216
 30
0.0
 10
318.3972452311442
 20
7.994984424028573
 30
0.0
 10
318.877089748938
 20
7.33805327134835
 30
0.0
 10
319.5804206918207
 20
7.212229331714763
 30
0.0
  0
SPLINE
  5
177
330
70
100
AcDbEntity
  8
Sketch Geometry(ISO)
 62
    18
420
        0
370
    18
100
AcDbSpline
210
0.0
220
0.0
230
1.0
 70
     8
 71
     3
 72
    14
 73
    10
 74
     0
 42
0.0000000001
 43
0.0000000001
 40
0.0
 40
0.0
 40
0.0
 40
0.0
 40
1.0
 40
1.0
 40
1.0
 40
2.0
 40
2.0
 40
2.0
 40
3.0
 40
3.0
 40
3.0
 40
3.0
 10
319.389792133356
 20
10.03931481344966
 30
0.0
 10
318.5792104748717
 20
9.974525289599217
 30
0.0
 10
317.9746264948972
 20
9.264896736557124
 30
0.0
 10
318.0394160187477
 20
8.454315078072863
 30
0.0
 10
318.1042055425978
 20
7.643733419588601
 30
0.0
 10
318.8138340956405
 20
7.039149439614093
 30
0.0
 10
319.6244157541248
 20
7.103938963464538
 30
0.0
 10
319.6282333123086
 20
7.104244099627361
 30
0.0
 10
319.6320496654435
 20
7.1045641292296
 30
0.0
 10
319.6358647263884
 20
7.104899044964231
 30
0.0
  0
SPLINE
  5
178
330
70
100
AcDbEntity
  8
Sketch Geometry(ISO)
 62
    18
420
        0
370
    18
100
AcDbSpline
210
0.0
220
0.0
230
1.0
 70
     8
 71
     3
 72
     8
 73
     4
 74
     0
 42
0.0000000001
 43
0.0000000001
 40
0.0
 40
0.0
 40
0.0
 40
0.0
 40
1.0
 40
1.0
 40
1.0
 40
1.0
 10
320.5183751173411
 20
9.481831645662525
 30
0.0
 10
320.3317196058604
 20
9.736280355692073
 30
0.0
 10
320.043912001717
 20
9.897302285126221
 30
0.0
 10
319.7294097704548
 20
9.923240144198107
 30
0.0
  0
SPLINE
  5
179
330
70
100
AcDbEntity
  8
Sketch Geometry(ISO)
 62
    18
420
        0
370
    18
100
AcDbSpline
210
0.0
220
0.0
230
1.0
 70
     8
 71
     3
 72
     8
 73
     4
 74
     0
 42
0.0000000001
 43
0.0000000001
 40
0.0
 40
0.0
 40
0.0
 40
0.0
 40
1.0
 40
1.0
 40
1.0
 40
1.0
 10
320.7813500007656
 20
8.030547686843744
 30
0.0
 10
320.9216595190127
 20
8.5290030461123
 30
0.0
 10
320.8246628179803
 20
9.064300388710476
 30
0.0
 10
320.5183751173414
 20
9.481831645662525
 30
0.0
  0
SPLINE
  5
17A
330
70
100
AcDbEntity
  8
Sketch Geometry(ISO)
 62
    18
420
        0
370
    18
100
AcDbSpline
210
0.0
220
0.0
230
1.0
 70
     8
 71
     3
 72
    11
 73
     7
 74
     0
 42
0.0000000001
 43
0.0000000001
 40
0.0
 40
0.0
 40
0.0
 40
0.0
 40
1.0
 40
1.0
 40
1.0
 40
2.0
 40
2.0
 40
2.0
 40
2.0
 10
319.9742145418082
 20
7.123354490048852
 30
0.0
 10
320.7819227110178
 20
7.21027493082206
 30
0.0
 10
321.3662366147685
 20
7.935514713470054
 30
0.0
 10
321.2793161739949
 20
8.74322288267942
 30
0.0
 10
321.206291197643
 20
9.421807453018182
 30
0.0
 10
320.6760803287287
 20
9.961024026413907
 30
0.0
 10
319.998821801112
 20
10.04546662847808
 30
0.0
  0
LINE
  5
17B
330
70
100
AcDbEntity
  8
Sketch Geometry(ISO)
 62
     1
420
 16711680
370
    18
100
AcDbLine
 10
320.7788752419354
 20
6.123353584488907
 30
0.0
 11
320.7788752419354
 21
6.28694374500964
 31
0.0
  0
LINE
  5
17C
330
70
100
AcDbEntity
  8
Sketch Geometry(ISO)
 62
    18
420
        0
370
    18
100
AcDbLine
 10
321.8192734116132
 20
6.11505968553453
 30
0.0
 11
321.8192734116132
 21
6.262371330100946
 31
0.0
  0
SPLINE
  5
17D
330
70
100
AcDbEntity
  8
Sketch Geometry(ISO)
 62
    18
420
        0
370
    18
100
AcDbSpline
210
0.0
220
0.0
230
1.0
 70
     8
 71
     3
 72
     8
 73
     4
 74
     0
 42
0.0000000001
 43
0.0000000001
 40
0.0
 40
0.0
 40
0.0
 40
0.0
 40
1.0
 40
1.0
 40
1.0
 40
1.0
 10
317.2066760244509
 20
7.963740830553877
 30
0.0
 10
317.1836485758875
 20
8.189952302022964
 30
0.0
 10
317.0594074656522
 20
8.393562987595618
 30
0.0
 10
316.8687755515054
 20
8.517503967583165
 30
0.0
  0
SPLINE
  5
17E
330
70
100
AcDbEntity
  8
Sketch Geometry(ISO)
 62
    18
420
        0
370
    18
100
AcDbSpline
210
0.0
220
0.0
230
1.0
 70
     8
 71
     3
 72
    11
 73
     7
 74
     0
 42
0.0000000001
 43
0.0000000001
 40
0.0
 40
0.0
 40
0.0
 40
0.0
 40
1.0
 40
1.0
 40
1.0
 40
2.0
 40
2.0
 40
2.0
 40
2.0
 10
316.5053855669363
 20
7.126176371279774
 30
0.0
 10
316.9253119994142
 20
7.157815954922865
 30
0.0
 10
317.2400806829902
 20
7.52388253912091
 30
0.0
 10
317.2084410993471
 20
7.943808971598785
 30
0.0
 10
317.2079399469809
 20
7.950460358910605
 30
0.0
 10
317.2073515380301
 20
7.957104883878781
 30
0.0
 10
317.2066760244509
 20
7.963740830553877
 30
0.0
  0
SPLINE
  5
17F
330
70
100
AcDbEntity
  8
Sketch Geometry(ISO)
 62
    18
420
        0
370
    18
100
AcDbSpline
210
0.0
220
0.0
230
1.0
 70
     8
 71
     3
 72
     8
 73
     4
 74
     0
 42
0.0000000001
 43
0.0000000001
 40
0.0
 40
0.0
 40
0.0
 40
0.0
 40
1.0
 40
1.0
 40
1.0
 40
1.0
 10
316.8486759463866
 20
7.599496573077582
 30
0.0
 10
316.898852094043
 20
7.879557331496654
 30
0.0
 10
316.7618204029787
 20
8.159851597480791
 30
0.0
 10
316.5099911025162
 20
8.292266391323968
 30
0.0
  0
SPLINE
  5
180
330
70
100
AcDbEntity
  8
Sketch Geometry(ISO)
 62
    18
420
        0
370
    18
100
AcDbSpline
210
0.0
220
0.0
230
1.0
 70
     8
 71
     3
 72
     8
 73
     4
 74
     0
 42
0.0000000001
 43
0.0000000001
 40
0.0
 40
0.0
 40
0.0
 40
0.0
 40
1.0
 40
1.0
 40
1.0
 40
1.0
 10
316.198669370887
 20
7.234426710483168
 30
0.0
 10
316.4701643434851
 20
7.209149531446269
 30
0.0
 10
316.7289735497383
 20
7.354507201546962
 30
0.0
 10
316.8486759463866
 20
7.599496573077582
 30
0.0
  0
SPLINE
  5
181
330
70
100
AcDbEntity
  8
Sketch Geometry(ISO)
 62
    18
420
        0
370
    18
100
AcDbSpline
210
0.0
220
0.0
230
1.0
 70
     8
 71
     3
 72
     8
 73
     4
 74
     0
 42
0.0000000001
 43
0.0000000001
 40
0.0
 40
0.0
 40
0.0
 40
0.0
 40
1.0
 40
1.0
 40
1.0
 40
1.0
 10
315.7259237389519
 20
7.220656592382264
 30
0.0
 10
315.9773728774508
 20
7.139885806006009
 30
0.0
 10
316.2419209396166
 20
7.107819374388651
 30
0.0
 10
316.5053855669363
 20
7.126176371279132
 30
0.0
  0
SPLINE
  5
182
330
70
100
AcDbEntity
  8
Sketch Geometry(ISO)
 62
    18
420
        0
370
    18
100
AcDbSpline
210
0.0
220
0.0
230
1.0
 70
     8
 71
     3
 72
     8
 73
     4
 74
     0
 42
0.0000000001
 43
0.0000000001
 40
0.0
 40
0.0
 40
0.0
 40
0.0
 40
1.0
 40
1.0
 40
1.0
 40
1.0
 10
315.7259237389519
 20
7.220656592382264
 30
0.0
 10
315.6852735506884
 20
7.239353417064649
 30
0.0
 10
315.6383760059321
 20
7.238808011707139
 30
0.0
 10
315.5981716309874
 20
7.21917087102016
 30
0.0
  0
LINE
  5
183
330
70
100
AcDbEntity
  8
Sketch Geometry(ISO)
 62
    18
420
        0
370
    18
100
AcDbLine
 10
315.5806373568303
 20
7.161307766165563
 30
0.0
 11
315.5981716309874
 21
7.21917087102016
 31
0.0
  0
LINE
  5
184
330
70
100
AcDbEntity
  8
Sketch Geometry(ISO)
 62
    18
420
        0
370
    18
100
AcDbLine
 10
315.5091717175838
 20
7.161307766165563
 30
0.0
 11
315.5806373568303
 21
7.161307766165563
 31
0.0
  0
SPLINE
  5
185
330
70
100
AcDbEntity
  8
Sketch Geometry(ISO)
 62
    18
420
        0
370
    18
100
AcDbSpline
210
0.0
220
0.0
230
1.0
 70
     8
 71
     3
 72
     8
 73
     4
 74
     0
 42
0.0000000001
 43
0.0000000001
 40
0.0
 40
0.0
 40
0.0
 40
0.0
 40
1.0
 40
1.0
 40
1.0
 40
1.0
 10
315.4903723893542
 20
7.886760479888879
 30
0.0
 10
315.552649789369
 20
7.534633416434514
 30
0.0
 10
315.8426173558262
 20
7.267576460716806
 30
0.0
 10
316.198669370887
 20
7.234426710483168
 30
0.0
  0
LINE
  5
186
330
70
100
AcDbEntity
  8
Sketch Geometry(ISO)
 62
    18
420
        0
370
    18
100
AcDbLine
 10
315.3917271541293
 20
7.886760479888879
 30
0.0
 11
315.4903723893542
 21
7.886760479888879
 31
0.0
  0
LINE
  5
187
330
70
100
AcDbEntity
  8
Sketch Geometry(ISO)
 62
    18
420
        0
370
    18
100
AcDbLine
 10
315.3917271541293
 20
7.886760479888879
 30
0.0
 11
315.5091717175838
 21
7.161307766165563
 31
0.0
  0
SPLINE
  5
188
330
70
100
AcDbEntity
  8
Sketch Geometry(ISO)
 62
    18
420
        0
370
    18
100
AcDbSpline
210
0.0
220
0.0
230
1.0
 70
     8
 71
     3
 72
     8
 73
     4
 74
     0
 42
0.0000000001
 43
0.0000000001
 40
0.0
 40
0.0
 40
0.0
 40
0.0
 40
1.0
 40
1.0
 40
1.0
 40
1.0
 10
315.6549274051756
 20
8.902513303391016
 30
0.0
 10
315.9109710660005
 20
8.661281328452352
 30
0.0
 10
316.1986273235279
 20
8.455985110826818
 30
0.0
 10
316.5099911025162
 20
8.292266391323968
 30
0.0
  0
SPLINE
  5
189
330
70
100
AcDbEntity
  8
Sketch Geometry(ISO)
 62
    18
420
        0
370
    18
100
AcDbSpline
210
0.0
220
0.0
230
1.0
 70
     8
 71
     3
 72
     8
 73
     4
 74
     0
 42
0.0000000001
 43
0.0000000001
 40
0.0
 40
0.0
 40
0.0
 40
0.0
 40
1.0
 40
1.0
 40
1.0
 40
1.0
 10
315.9881646056932
 20
9.130951807717289
 30
0.0
 10
316.2628761710248
 20
8.900690253991017
 30
0.0
 10
316.5575811386469
 20
8.695394002877776
 30
0.0
 10
316.8687755515054
 20
8.517503967583165
 30
0.0
  0
LINE
  5
18A
330
70
100
AcDbEntity
  8
Sketch Geometry(ISO)
  6
AI-Linetype-0
 62
     1
420
 16711680
370
    18
100
AcDbLine
 10
308.0756160811877
 20
6.374980720385441
 30
0.0
 11
309.867034218987
 21
6.374980720385441
 31
0.0
  0
LINE
  5
18C
330
70
100
AcDbEntity
  8
Sketch Geometry(ISO)
 62
    18
420
        0
370
    18
100
AcDbLine
 10
308.0756160811877
 20
6.068125458580143
 30
0.0
 11
309.867034218987
 21
6.068125458580143
 31
0.0
  0
LINE
  5
18D
330
70
100
AcDbEntity
  8
Sketch Geometry(ISO)
  6
AI-Linetype-1
 62
     1
420
 16711680
370
    18
100
AcDbLine
 10
306.3808905780159
 20
6.319752594476677
 30
0.0
 11
311.5617597221588
 21
6.319752594476677
 31
0.0
  0
LINE
  5
18F
330
70
100
AcDbEntity
  8
Sketch Geometry(ISO)
 62
    18
420
        0
370
    18
100
AcDbLine
 10
306.3808905780159
 20
6.123353584488907
 30
0.0
 11
311.5617597221588
 21
6.123353584488907
 31
0.0
  0
LINE
  5
190
330
70
100
AcDbEntity
  8
Sketch Geometry(ISO)
 62
    18
420
        0
370
    18
100
AcDbLine
 10
310.5596473529147
 20
7.166216018377199
 30
0.0
 11
308.1414688448327
 21
7.166216018377199
 31
0.0
  0
LINE
  5
191
330
70
100
AcDbEntity
  8
Sketch Geometry(ISO)
 62
    18
420
        0
370
    18
100
AcDbLine
 10
309.6001664103838
 20
5.789580276597296
 30
0.0
 11
309.867034218987
 21
6.068125458580143
 31
0.0
  0
LINE
  5
192
330
70
100
AcDbEntity
  8
Sketch Geometry(ISO)
 62
    18
420
        0
370
    18
100
AcDbLine
 10
311.2419791012442
 20
5.789580276597296
 30
0.0
 11
309.6001664103838
 21
5.789580276597296
 31
0.0
  0
LINE
  5
193
330
70
100
AcDbEntity
  8
Sketch Geometry(ISO)
 62
     1
420
 16711680
370
    18
100
AcDbLine
 10
311.2419791012442
 20
6.653525902368931
 30
0.0
 11
309.6001664103838
 21
6.653525902368931
 31
0.0
  0
LINE
  5
194
330
70
100
AcDbEntity
  8
Sketch Geometry(ISO)
 62
    18
420
        0
370
    18
100
AcDbLine
 10
311.2903257214814
 20
7.165545123857757
 30
0.0
 11
311.2903257214814
 21
7.28604713075476
 31
0.0
  0
LINE
  5
195
330
70
100
AcDbEntity
  8
Sketch Geometry(ISO)
 62
     1
420
 16711680
370
    18
100
AcDbLine
 10
311.5617597221588
 20
6.319752594476677
 30
0.0
 11
311.2419791012442
 21
6.653525902368931
 31
0.0
  0
LINE
  5
196
330
70
100
AcDbEntity
  8
Sketch Geometry(ISO)
 62
    18
420
        0
370
    18
100
AcDbLine
 10
311.2903257214814
 20
7.28604713075476
 30
0.0
 11
311.5337483097028
 21
7.28604713075476
 31
0.0
  0
LINE
  5
197
330
70
100
AcDbEntity
  8
Sketch Geometry(ISO)
 62
     1
420
 16711680
370
    18
100
AcDbLine
 10
309.6001664103838
 20
6.653525902368931
 30
0.0
 11
309.867034218987
 21
6.374980720385441
 31
0.0
  0
SPLINE
  5
198
330
70
100
AcDbEntity
  8
Sketch Geometry(ISO)
 62
    18
420
        0
370
    18
100
AcDbSpline
210
0.0
220
0.0
230
1.0
 70
     8
 71
     3
 72
    11
 73
     7
 74
     0
 42
0.0000000001
 43
0.0000000001
 40
0.0
 40
0.0
 40
0.0
 40
0.0
 40
1.0
 40
1.0
 40
1.0
 40
2.0
 40
2.0
 40
2.0
 40
2.0
 10
308.4851942151954
 20
7.287367246521527
 30
0.0
 10
308.5953775435868
 20
7.287367246521527
 30
0.0
 10
308.6846987795081
 20
7.376688482442786
 30
0.0
 10
308.6846987795081
 20
7.486871810834203
 30
0.0
 10
308.6846987795081
 20
7.491449742239531
 30
0.0
 10
308.6845412082699
 20
7.496026317352979
 30
0.0
 10
308.6842263456447
 20
7.500593408055159
 30
0.0
  0
LINE
  5
199
330
70
100
AcDbEntity
  8
Sketch Geometry(ISO)
 62
    18
420
        0
370
    18
100
AcDbLine
 10
308.228569826449
 20
9.886273798544186
 30
0.0
 11
308.228569826449
 21
9.995839929695526
 31
0.0
  0
LINE
  5
19A
330
70
100
AcDbEntity
  8
Sketch Geometry(ISO)
 62
    18
420
        0
370
    18
100
AcDbLine
 10
308.6842263456447
 20
9.666777367277797
 30
0.0
 11
308.6842263456447
 21
7.500593408055159
 31
0.0
  0
LINE
  5
19B
330
70
100
AcDbEntity
  8
Sketch Geometry(ISO)
 62
    18
420
        0
370
    18
100
AcDbLine
 10
308.5181176643142
 20
9.886273798544829
 30
0.0
 11
308.228569826449
 21
9.886273798544186
 31
0.0
  0
SPLINE
  5
19C
330
70
100
AcDbEntity
  8
Sketch Geometry(ISO)
 62
    18
420
        0
370
    18
100
AcDbSpline
210
0.0
220
0.0
230
1.0
 70
     8
 71
     3
 72
     8
 73
     4
 74
     0
 42
0.0000000001
 43
0.0000000001
 40
0.0
 40
0.0
 40
0.0
 40
0.0
 40
1.0
 40
1.0
 40
1.0
 40
1.0
 10
308.6842263456447
 20
9.65064947783247
 30
0.0
 10
308.6878361431495
 20
9.757516880989783
 30
0.0
 10
308.6199842948142
 20
9.853764383197921
 30
0.0
 10
308.5181176643142
 20
9.886273798544829
 30
0.0
  0
LINE
  5
19D
330
70
100
AcDbEntity
  8
Sketch Geometry(ISO)
 62
    18
420
        0
370
    18
100
AcDbLine
 10
309.2662323285492
 20
7.350365885156449
 30
0.0
 11
310.0922574743085
 21
7.350365885156449
 31
0.0
  0
SPLINE
  5
19E
330
70
100
AcDbEntity
  8
Sketch Geometry(ISO)
 62
    18
420
        0
370
    18
100
AcDbSpline
210
0.0
220
0.0
230
1.0
 70
     8
 71
     3
 72
     8
 73
     4
 74
     0
 42
0.0000000001
 43
0.0000000001
 40
0.0
 40
0.0
 40
0.0
 40
0.0
 40
1.0
 40
1.0
 40
1.0
 40
1.0
 10
310.0922574743085
 20
7.350365885156449
 30
0.0
 10
310.2297623508145
 20
7.350365885156449
 30
0.0
 10
310.3558089757383
 20
7.426987002808671
 30
0.0
 10
310.4191119285975
 20
7.54905389931289
 30
0.0
  0
LINE
  5
19F
330
70
100
AcDbEntity
  8
Sketch Geometry(ISO)
 62
    18
420
        0
370
    18
100
AcDbLine
 10
309.0816023730249
 20
9.807312791923548
 30
0.0
 11
309.0816023730249
 21
8.729713894062692
 31
0.0
  0
LINE
  5
1A0
330
70
100
AcDbEntity
  8
Sketch Geometry(ISO)
 62
    18
420
        0
370
    18
100
AcDbLine
 10
309.0816023730249
 20
8.729713894062692
 30
0.0
 11
309.9104183576075
 21
8.729713894062692
 31
0.0
  0
LINE
  5
1A1
330
70
100
AcDbEntity
  8
Sketch Geometry(ISO)
 62
    18
420
        0
370
    18
100
AcDbLine
 10
308.228569826449
 20
9.995839929695526
 30
0.0
 11
310.3892138793739
 21
9.995839929700659
 31
0.0
  0
LINE
  5
1A2
330
70
100
AcDbEntity
  8
Sketch Geometry(ISO)
 62
    18
420
        0
370
    18
100
AcDbLine
 10
309.0816023730249
 20
9.807312791923548
 30
0.0
 11
310.031427999446
 21
9.807312791923548
 31
0.0
  0
SPLINE
  5
1A3
330
70
100
AcDbEntity
  8
Sketch Geometry(ISO)
 62
    18
420
        0
370
    18
100
AcDbSpline
210
0.0
220
0.0
230
1.0
 70
     8
 71
     3
 72
    11
 73
     7
 74
     0
 42
0.0000000001
 43
0.0000000001
 40
0.0
 40
0.0
 40
0.0
 40
0.0
 40
1.0
 40
1.0
 40
1.0
 40
2.0
 40
2.0
 40
2.0
 40
2.0
 10
309.0816023730253
 20
7.553899948439049
 30
0.0
 10
309.0716467736297
 20
7.451931639640822
 30
0.0
 10
309.1462378124398
 20
7.361199384998419
 30
0.0
 10
309.2482061212375
 20
7.351243785603239
 30
0.0
 10
309.2541970551146
 20
7.350658865264641
 30
0.0
 10
309.2602129082683
 20
7.350365885156449
 30
0.0
 10
309.2662323285492
 20
7.350365885156449
 30
0.0
  0
LINE
  5
1A4
330
70
100
AcDbEntity
  8
Sketch Geometry(ISO)
 62
    18
420
        0
370
    18
100
AcDbLine
 10
309.9310892264244
 20
8.544635863120079
 30
0.0
 11
309.0816023730249
 21
8.544635863120079
 31
0.0
  0
LINE
  5
1A5
330
70
100
AcDbEntity
  8
Sketch Geometry(ISO)
 62
    18
420
        0
370
    18
100
AcDbLine
 10
309.0816023730249
 20
8.544635863120079
 30
0.0
 11
309.0816023730249
 21
7.553899948439049
 31
0.0
  0
LINE
  5
1A6
330
70
100
AcDbEntity
  8
Sketch Geometry(ISO)
 62
    18
420
        0
370
    18
100
AcDbLine
 10
310.4593362015787
 20
9.342825788052669
 30
0.0
 11
310.3462211394718
 21
9.330679204501572
 31
0.0
  0
LINE
  5
1A7
330
70
100
AcDbEntity
  8
Sketch Geometry(ISO)
 62
    18
420
        0
370
    18
100
AcDbLine
 10
310.3892138793739
 20
9.995839929700659
 30
0.0
 11
310.4593362015787
 21
9.342825788052669
 31
0.0
  0
LINE
  5
1A8
330
70
100
AcDbEntity
  8
Sketch Geometry(ISO)
 62
    18
420
        0
370
    18
100
AcDbLine
 10
310.2357684917919
 20
9.063580145959532
 30
0.0
 11
310.2357684917948
 21
8.181737763231764
 31
0.0
  0
LINE
  5
1A9
330
70
100
AcDbEntity
  8
Sketch Geometry(ISO)
 62
    18
420
        0
370
    18
100
AcDbLine
 10
310.2357684917948
 20
8.181737763231764
 30
0.0
 11
310.1268990591086
 21
8.181737763231764
 31
0.0
  0
LINE
  5
1AA
330
70
100
AcDbEntity
  8
Sketch Geometry(ISO)
 62
    18
420
        0
370
    18
100
AcDbLine
 10
310.1268990591086
 20
8.181737763231764
 30
0.0
 11
310.1268990591079
 21
8.32603979242075
 31
0.0
  0
LINE
  5
1AB
330
70
100
AcDbEntity
  8
Sketch Geometry(ISO)
 62
    18
420
        0
370
    18
100
AcDbLine
 10
310.1268990591079
 20
8.94063707423564
 30
0.0
 11
310.1268990591076
 21
9.063580145958889
 31
0.0
  0
SPLINE
  5
1AC
330
70
100
AcDbEntity
  8
Sketch Geometry(ISO)
 62
    18
420
        0
370
    18
100
AcDbSpline
210
0.0
220
0.0
230
1.0
 70
     8
 71
     3
 72
    11
 73
     7
 74
     0
 42
0.0000000001
 43
0.0000000001
 40
0.0
 40
0.0
 40
0.0
 40
0.0
 40
1.0
 40
1.0
 40
1.0
 40
2.0
 40
2.0
 40
2.0
 40
2.0
 10
310.2884130412055
 20
9.614549793298108
 30
0.0
 10
310.2717998894475
 20
9.737903222803009
 30
0.0
 10
310.158334556638
 20
9.824433314696376
 30
0.0
 10
310.0349811271337
 20
9.807820162938366
 30
0.0
 10
310.0337954232736
 20
9.807660473189573
 30
0.0
 10
310.0326110098268
 20
9.807491344156359
 30
0.0
 10
310.031427999446
 20
9.807312791923548
 30
0.0
  0
SPLINE
  5
1AD
330
70
100
AcDbEntity
  8
Sketch Geometry(ISO)
 62
    18
420
        0
370
    18
100
AcDbSpline
210
0.0
220
0.0
230
1.0
 70
     8
 71
     3
 72
     8
 73
     4
 74
     0
 42
0.0000000001
 43
0.0000000001
 40
0.0
 40
0.0
 40
0.0
 40
0.0
 40
1.0
 40
1.0
 40
1.0
 40
1.0
 10
310.1268990591079
 20
8.326039792420109
 30
0.0
 10
310.1268990591079
 20
8.438167796684057
 30
0.0
 10
310.0425412622453
 20
8.532342244791975
 30
0.0
 10
309.9310892264244
 20
8.544635863120079
 30
0.0
  0
SPLINE
  5
1AE
330
70
100
AcDbEntity
  8
Sketch Geometry(ISO)
 62
    18
420
        0
370
    18
100
AcDbSpline
210
0.0
220
0.0
230
1.0
 70
     8
 71
     3
 72
    11
 73
     7
 74
     0
 42
0.0000000001
 43
0.0000000001
 40
0.0
 40
0.0
 40
0.0
 40
0.0
 40
1.0
 40
1.0
 40
1.0
 40
2.0
 40
2.0
 40
2.0
 40
2.0
 10
309.9104183576075
 20
8.729713894062692
 30
0.0
 10
310.0300177839427
 20
8.729713894062692
 30
0.0
 10
310.1269722754405
 20
8.826668385560399
 30
0.0
 10
310.1269722754405
 20
8.946267811895294
 30
0.0
 10
310.1269722754405
 20
8.94814496245041
 30
0.0
 10
310.1269478679333
 20
8.950022033662003
 30
0.0
 10
310.1268990591079
 20
8.951898549556874
 30
0.0
  0
LINE
  5
1AF
330
70
100
AcDbEntity
  8
Sketch Geometry(ISO)
 62
    18
420
        0
370
    18
100
AcDbLine
 10
310.1268990591076
 20
9.063580145958889
 30
0.0
 11
310.2357684917919
 21
9.063580145959532
 31
0.0
  0
LINE
  5
1B0
330
70
100
AcDbEntity
  8
Sketch Geometry(ISO)
 62
    18
420
        0
370
    18
100
AcDbLine
 10
312.116606512127
 20
7.424800292236167
 30
0.0
 11
312.116606512127
 21
8.352925025282511
 31
0.0
  0
SPLINE
  5
1B1
330
70
100
AcDbEntity
  8
Sketch Geometry(ISO)
 62
    18
420
        0
370
    18
100
AcDbSpline
210
0.0
220
0.0
230
1.0
 70
     8
 71
     3
 72
     8
 73
     4
 74
     0
 42
0.0000000001
 43
0.0000000001
 40
0.0
 40
0.0
 40
0.0
 40
0.0
 40
1.0
 40
1.0
 40
1.0
 40
1.0
 10
312.116606512127
 20
7.424800292236167
 30
0.0
 10
312.1481114678462
 20
7.353597431718008
 30
0.0
 10
312.2120010331053
 20
7.301942197143087
 30
0.0
 10
312.2882227914516
 20
7.28604713075476
 30
0.0
  0
SPLINE
  5
1B2
330
70
100
AcDbEntity
  8
Sketch Geometry(ISO)
 62
    18
420
        0
370
    18
100
AcDbSpline
210
0.0
220
0.0
230
1.0
 70
     8
 71
     3
 72
     8
 73
     4
 74
     0
 42
0.0000000001
 43
0.0000000001
 40
0.0
 40
0.0
 40
0.0
 40
0.0
 40
1.0
 40
1.0
 40
1.0
 40
1.0
 10
311.5337483097028
 20
7.28604713075476
 30
0.0
 10
311.6376999436882
 20
7.31149927874174
 30
0.0
 10
311.7126963806276
 20
7.402056587202185
 30
0.0
 10
311.7183324501469
 20
7.508930291946737
 30
0.0
  0
LINE
  5
1B3
330
70
100
AcDbEntity
  8
Sketch Geometry(ISO)
 62
    18
420
        0
370
    18
100
AcDbLine
 10
310.5160329108852
 20
7.868893141614301
 30
0.0
 11
310.6177999422875
 21
7.868893141614301
 31
0.0
  0
LINE
  5
1B4
330
70
100
AcDbEntity
  8
Sketch Geometry(ISO)
 62
    18
420
        0
370
    18
100
AcDbLine
 10
310.5160329108852
 20
7.868893141614301
 30
0.0
 11
310.4191119285973
 21
7.54905389931289
 31
0.0
  0
LINE
  5
1B5
330
70
100
AcDbEntity
  8
Sketch Geometry(ISO)
 62
    18
420
        0
370
    18
100
AcDbLine
 10
310.6177999422875
 20
7.868893141614301
 30
0.0
 11
310.5596473529147
 21
7.166216018377199
 31
0.0
  0
LINE
  5
1B6
330
70
100
AcDbEntity
  8
Sketch Geometry(ISO)
 62
    18
420
        0
370
    18
100
AcDbLine
 10
311.2807226783421
 20
10.00128945178837
 30
0.0
 11
312.5788011025727
 21
10.00128945178837
 31
0.0
  0
LINE
  5
1B7
330
70
100
AcDbEntity
  8
Sketch Geometry(ISO)
 62
    18
420
        0
370
    18
100
AcDbLine
 10
311.7183324501469
 20
9.67647649091665
 30
0.0
 11
311.7183324501469
 21
7.508930291946737
 31
0.0
  0
LINE
  5
1B8
330
70
100
AcDbEntity
  8
Sketch Geometry(ISO)
 62
    18
420
        0
370
    18
100
AcDbLine
 10
310.3462211394718
 20
9.330679204501572
 30
0.0
 11
310.2884130412055
 21
9.614549793298108
 31
0.0
  0
LINE
  5
1B9
330
70
100
AcDbEntity
  8
Sketch Geometry(ISO)
 62
    18
420
        0
370
    18
100
AcDbLine
 10
312.6349828871555
 20
8.352925025282511
 30
0.0
 11
312.116606512127
 21
8.352925025282511
 31
0.0
  0
LINE
  5
1BA
330
70
100
AcDbEntity
  8
Sketch Geometry(ISO)
 62
    18
420
        0
370
    18
100
AcDbLine
 10
312.116606512127
 20
8.453269836565949
 30
0.0
 11
312.6349828871555
 21
8.453269836565949
 31
0.0
  0
LINE
  5
1BB
330
70
100
AcDbEntity
  8
Sketch Geometry(ISO)
 62
    18
420
        0
370
    18
100
AcDbLine
 10
311.4390786222643
 20
9.912784098979757
 30
0.0
 11
311.2807226783421
 21
9.912784098979757
 31
0.0
  0
SPLINE
  5
1BC
330
70
100
AcDbEntity
  8
Sketch Geometry(ISO)
 62
    18
420
        0
370
    18
100
AcDbSpline
210
0.0
220
0.0
230
1.0
 70
     8
 71
     3
 72
     8
 73
     4
 74
     0
 42
0.0000000001
 43
0.0000000001
 40
0.0
 40
0.0
 40
0.0
 40
0.0
 40
1.0
 40
1.0
 40
1.0
 40
1.0
 10
311.7183324501469
 20
9.67647649091665
 30
0.0
 10
311.6848009306764
 20
9.806508906270893
 30
0.0
 10
311.5728667647884
 20
9.901228807523006
 30
0.0
 10
311.4390786222643
 20
9.912784098979757
 30
0.0
  0
LINE
  5
1BD
330
70
100
AcDbEntity
  8
Sketch Geometry(ISO)
 62
    18
420
        0
370
    18
100
AcDbLine
 10
311.2807226783421
 20
9.912784098979757
 30
0.0
 11
311.2807226783421
 21
10.00128945178837
 31
0.0
  0
LINE
  5
1BE
330
70
100
AcDbEntity
  8
Sketch Geometry(ISO)
 62
    18
420
        0
370
    18
100
AcDbLine
 10
312.5788011025727
 20
9.912784098979757
 30
0.0
 11
312.116606512127
 21
9.912784098979757
 31
0.0
  0
LINE
  5
1BF
330
70
100
AcDbEntity
  8
Sketch Geometry(ISO)
 62
    18
420
        0
370
    18
100
AcDbLine
 10
312.116606512127
 20
8.453269836565949
 30
0.0
 11
312.116606512127
 21
9.912784098979757
 31
0.0
  0
LINE
  5
1C0
330
70
100
AcDbEntity
  8
Sketch Geometry(ISO)
 62
    18
420
        0
370
    18
100
AcDbLine
 10
312.2882227914516
 20
7.28604713075476
 30
0.0
 11
312.5555967637093
 21
7.28604713075476
 31
0.0
  0
LINE
  5
1C1
330
70
100
AcDbEntity
  8
Sketch Geometry(ISO)
 62
    18
420
        0
370
    18
100
AcDbLine
 10
312.5555967637093
 20
7.28604713075476
 30
0.0
 11
312.5555967637093
 21
7.165545123857757
 31
0.0
  0
LINE
  5
1C2
330
70
100
AcDbEntity
  8
Sketch Geometry(ISO)
 62
    18
420
        0
370
    18
100
AcDbLine
 10
312.5555967637093
 20
7.165545123857757
 30
0.0
 11
311.2903257214814
 21
7.165545123857757
 31
0.0
  0
LINE
  5
1C3
330
70
100
AcDbEntity
  8
Sketch Geometry(ISO)
 62
     1
420
 16711680
370
    18
100
AcDbLine
 10
312.1548284224646
 20
6.28694374500964
 30
0.0
 11
312.1548284224646
 21
6.123353584488907
 31
0.0
  0
LINE
  5
1C4
330
70
100
AcDbEntity
  8
Sketch Geometry(ISO)
 62
    18
420
        0
370
    18
100
AcDbLine
 10
311.5617597221588
 20
6.123353584488907
 30
0.0
 11
311.2419791012442
 21
5.789580276597296
 31
0.0
  0
SPLINE
  5
1C5
330
70
100
AcDbEntity
  8
Sketch Geometry(ISO)
 62
    18
420
        0
370
    18
100
AcDbSpline
210
0.0
220
0.0
230
1.0
 70
     8
 71
     3
 72
     8
 73
     4
 74
     0
 42
0.0000000001
 43
0.0000000001
 40
0.0
 40
0.0
 40
0.0
 40
0.0
 40
1.0
 40
1.0
 40
1.0
 40
1.0
 10
313.2458048062578
 20
7.80610648767439
 30
0.0
 10
313.0687933930904
 20
8.016068911163467
 30
0.0
 10
312.8631791131168
 20
8.200138435144518
 30
0.0
 10
312.6349828871555
 20
8.352925025282511
 30
0.0
  0
SPLINE
  5
1C6
330
70
100
AcDbEntity
  8
Sketch Geometry(ISO)
 62
    18
420
        0
370
    18
100
AcDbSpline
210
0.0
220
0.0
230
1.0
 70
     8
 71
     3
 72
    11
 73
     7
 74
     0
 42
0.0000000001
 43
0.0000000001
 40
0.0
 40
0.0
 40
0.0
 40
0.0
 40
1.0
 40
1.0
 40
1.0
 40
2.0
 40
2.0
 40
2.0
 40
2.0
 10
313.0569784676362
 20
8.488919607534494
 30
0.0
 10
313.4591682102489
 20
8.581508212794961
 30
0.0
 10
313.710149521438
 20
8.98260531327457
 30
0.0
 10
313.6175609161778
 20
9.384795055887883
 30
0.0
 10
313.6080577760944
 20
9.426075140551946
 30
0.0
 10
313.5950618761428
 20
9.46647244517165
 30
0.0
 10
313.5787136458108
 20
9.505550449551554
 30
0.0
  0
SPLINE
  5
1C7
330
70
100
AcDbEntity
  8
Sketch Geometry(ISO)
 62
    18
420
        0
370
    18
100
AcDbSpline
210
0.0
220
0.0
230
1.0
 70
     8
 71
     3
 72
    11
 73
     7
 74
     0
 42
0.0000000001
 43
0.0000000001
 40
0.0
 40
0.0
 40
0.0
 40
0.0
 40
1.0
 40
1.0
 40
1.0
 40
2.0
 40
2.0
 40
2.0
 40
2.0
 10
312.6349828871555
 20
8.453269836565949
 30
0.0
 10
313.0354905729391
 20
8.534406778244225
 30
0.0
 10
313.2943917152169
 20
8.924856894678683
 30
0.0
 10
313.2132547735387
 20
9.325364580462293
 30
0.0
 10
313.1500769791517
 20
9.63722243089886
 30
0.0
 10
312.8945928009547
 20
9.873766720597645
 30
0.0
 10
312.5788011025727
 20
9.912784098979757
 30
0.0
  0
SPLINE
  5
1C8
330
70
100
AcDbEntity
  8
Sketch Geometry(ISO)
 62
    18
420
        0
370
    18
100
AcDbSpline
210
0.0
220
0.0
230
1.0
 70
     8
 71
     3
 72
     8
 73
     4
 74
     0
 42
0.0000000001
 43
0.0000000001
 40
0.0
 40
0.0
 40
0.0
 40
0.0
 40
1.0
 40
1.0
 40
1.0
 40
1.0
 10
313.5787136458108
 20
9.505550449551554
 30
0.0
 10
313.3927468567597
 20
9.874779152098767
 30
0.0
 10
312.9852629902408
 20
10.07680246581943
 30
0.0
 10
312.5788011025727
 20
10.00128945178837
 30
0.0
  0
SPLINE
  5
1C9
330
70
100
AcDbEntity
  8
Sketch Geometry(ISO)
 62
    18
420
        0
370
    18
100
AcDbSpline
210
0.0
220
0.0
230
1.0
 70
     8
 71
     3
 72
     8
 73
     4
 74
     0
 42
0.0000000001
 43
0.0000000001
 40
0.0
 40
0.0
 40
0.0
 40
0.0
 40
1.0
 40
1.0
 40
1.0
 40
1.0
 10
313.5861165619574
 20
7.998337494459479
 30
0.0
 10
313.4210014880182
 20
8.173609694896043
 30
0.0
 10
313.2442185308125
 20
8.337511250335994
 30
0.0
 10
313.0569784676358
 20
8.488919607534494
 30
0.0
  0
LINE
  5
1CA
330
70
100
AcDbEntity
  8
Sketch Geometry(ISO)
 62
    18
420
        0
370
    18
100
AcDbLine
 10
316.9224586876828
 20
9.994988352226531
 30
0.0
 11
316.9959897919698
 21
9.994988352226531
 31
0.0
  0
SPLINE
  5
1CB
330
70
100
AcDbEntity
  8
Sketch Geometry(ISO)
 62
    18
420
        0
370
    18
100
AcDbSpline
210
0.0
220
0.0
230
1.0
 70
     8
 71
     3
 72
     8
 73
     4
 74
     0
 42
0.0000000001
 43
0.0000000001
 40
0.0
 40
0.0
 40
0.0
 40
0.0
 40
1.0
 40
1.0
 40
1.0
 40
1.0
 10
316.7859009225789
 20
9.943614191963947
 30
0.0
 10
316.4943280471872
 20
10.09700375337612
 30
0.0
 10
316.1509302955241
 20
10.11782068576559
 30
0.0
 10
315.8429635390571
 20
10.00077549737455
 30
0.0
  0
LINE
  5
1CC
330
70
100
AcDbEntity
  8
Sketch Geometry(ISO)
 62
    18
420
        0
370
    18
100
AcDbLine
 10
316.9224586876828
 20
9.994988352226531
 30
0.0
 11
316.8688365408435
 21
9.943614191963947
 31
0.0
  0
LINE
  5
1CD
330
70
100
AcDbEntity
  8
Sketch Geometry(ISO)
 62
    18
420
        0
370
    18
100
AcDbLine
 10
316.8688365408435
 20
9.943614191963947
 30
0.0
 11
316.7859009225789
 21
9.943614191963947
 31
0.0
  0
LINE
  5
1CE
330
70
100
AcDbEntity
  8
Sketch Geometry(ISO)
 62
    18
420
        0
370
    18
100
AcDbLine
 10
317.0943399877888
 20
9.38748116454945
 30
0.0
 11
316.9819838673439
 21
9.38748116454945
 31
0.0
  0
LINE
  5
1CF
330
70
100
AcDbEntity
  8
Sketch Geometry(ISO)
 62
    18
420
        0
370
    18
100
AcDbLine
 10
316.9959897919698
 20
9.994988352226531
 30
0.0
 11
317.0943399877888
 21
9.38748116454945
 31
0.0
  0
SPLINE
  5
1D0
330
70
100
AcDbEntity
  8
Sketch Geometry(ISO)
 62
    18
420
        0
370
    18
100
AcDbSpline
210
0.0
220
0.0
230
1.0
 70
     8
 71
     3
 72
    11
 73
     7
 74
     0
 42
0.0000000001
 43
0.0000000001
 40
0.0
 40
0.0
 40
0.0
 40
0.0
 40
1.0
 40
1.0
 40
1.0
 40
2.0
 40
2.0
 40
2.0
 40
2.0
 10
316.0450021757352
 20
9.887911180117997
 30
0.0
 10
315.8319188125216
 20
9.816291038447678
 30
0.0
 10
315.7172402130448
 20
9.585493246272744
 30
0.0
 10
315.7888603547148
 20
9.372409883059489
 30
0.0
 10
315.8141158537921
 20
9.297270033325419
 30
0.0
 10
315.8607627164486
 20
9.231140023022254
 30
0.0
 10
315.9230740756405
 20
9.182138678476258
 30
0.0
  0
SPLINE
  5
1D1
330
70
100
AcDbEntity
  8
Sketch Geometry(ISO)
 62
    18
420
        0
370
    18
100
AcDbSpline
210
0.0
220
0.0
230
1.0
 70
     8
 71
     3
 72
    11
 73
     7
 74
     0
 42
0.0000000001
 43
0.0000000001
 40
0.0
 40
0.0
 40
0.0
 40
0.0
 40
1.0
 40
1.0
 40
1.0
 40
2.0
 40
2.0
 40
2.0
 40
2.0
 10
319.7294097704548
 20
9.923240144198107
 30
0.0
 10
319.0983738790345
 20
9.97528339983827
 30
0.0
 10
318.5446288203394
 20
9.505917130257497
 30
0.0
 10
318.4925855646995
 20
8.874881238837438
 30
0.0
 10
318.4878768015569
 20
8.817786452769352
 30
0.0
 10
318.4874541540473
 20
8.760419029170684
 30
0.0
 10
318.4913211739397
 20
8.703261062065216
 30
0.0
  0
LINE
  5
1D2
330
70
100
AcDbEntity
  8
Sketch Geometry(ISO)
 62
    18
420
        0
370
    18
100
AcDbLine
 10
315.9230740756409
 20
9.182138678476258
 30
0.0
 11
315.9881646056932
 21
9.130951807717289
 31
0.0
  0
SPLINE
  5
1D3
330
70
100
AcDbEntity
  8
Sketch Geometry(ISO)
 62
    18
420
        0
370
    18
100
AcDbSpline
210
0.0
220
0.0
230
1.0
 70
     8
 71
     3
 72
    11
 73
     7
 74
     0
 42
0.0000000001
 43
0.0000000001
 40
0.0
 40
0.0
 40
0.0
 40
0.0
 40
1.0
 40
1.0
 40
1.0
 40
2.0
 40
2.0
 40
2.0
 40
2.0
 10
315.8429635390571
 20
10.00077549737455
 30
0.0
 10
315.5090699833628
 20
9.87387662498634
 30
0.0
 10
315.3412676378369
 20
9.500330556082065
 30
0.0
 10
315.4681665102251
 20
9.166437000388414
 30
0.0
 10
315.507071992094
 20
9.064069741855771
 30
0.0
 10
315.5713335575336
 20
8.973257637265058
 30
0.0
 10
315.6549274051756
 20
8.902513303391016
 30
0.0
  0
SPLINE
  5
1D4
330
70
100
AcDbEntity
  8
Sketch Geometry(ISO)
 62
    18
420
        0
370
    18
100
AcDbSpline
210
0.0
220
0.0
230
1.0
 70
     8
 71
     3
 72
    11
 73
     7
 74
     0
 42
0.0000000001
 43
0.0000000001
 40
0.0
 40
0.0
 40
0.0
 40
0.0
 40
1.0
 40
1.0
 40
1.0
 40
2.0
 40
2.0
 40
2.0
 40
2.0
 10
316.9819838673439
 20
9.38748116454945
 30
0.0
 10
316.8762152279914
 20
9.776516687702649
 30
0.0
 10
316.4750972006175
 20
10.00614986838404
 30
0.0
 10
316.0860616774646
 20
9.900381229031305
 30
0.0
 10
316.0722559339435
 20
9.896627806476365
 30
0.0
 10
316.0585635189476
 20
9.892469327255323
 30
0.0
 10
316.0450021757352
 20
9.887911180117997
 30
0.0
  0
LINE
  5
1D5
330
70
100
AcDbEntity
  8
Sketch Geometry(ISO)
 62
    18
420
        0
370
    18
100
AcDbLine
 10
314.7694445421349
 20
7.21459061811134
 30
0.0
 11
314.7694445421349
 21
7.127657954276647
 31
0.0
  0
SPLINE
  5
1D6
330
70
100
AcDbEntity
  8
Sketch Geometry(ISO)
 62
    18
420
        0
370
    18
100
AcDbSpline
210
0.0
220
0.0
230
1.0
 70
     8
 71
     3
 72
     8
 73
     4
 74
     0
 42
0.0000000001
 43
0.0000000001
 40
0.0
 40
0.0
 40
0.0
 40
0.0
 40
1.0
 40
1.0
 40
1.0
 40
1.0
 10
314.3177509477035
 20
7.341874531419482
 30
0.0
 10
314.4537120760343
 20
7.258639392615531
 30
0.0
 10
314.6100283674575
 20
7.21459061811134
 30
0.0
 10
314.7694445421349
 20
7.21459061811134
 30
0.0
  0
LINE
  5
1D7
330
70
100
AcDbEntity
  8
Sketch Geometry(ISO)
 62
    18
420
        0
370
    18
100
AcDbLine
 10
314.7694445421349
 20
7.127657954276647
 30
0.0
 11
314.2172317098308
 21
7.127657954276647
 31
0.0
  0
SPLINE
  5
1D8
330
70
100
AcDbEntity
  8
Sketch Geometry(ISO)
 62
    18
420
        0
370
    18
100
AcDbSpline
210
0.0
220
0.0
230
1.0
 70
     8
 71
     3
 72
     8
 73
     4
 74
     0
 42
0.0000000001
 43
0.0000000001
 40
0.0
 40
0.0
 40
0.0
 40
0.0
 40
1.0
 40
1.0
 40
1.0
 40
1.0
 10
313.9344590167073
 20
7.640570130378681
 30
0.0
 10
314.0411501470588
 20
7.51657141768854
 30
0.0
 10
314.1714426640606
 20
7.415035751898447
 30
0.0
 10
314.3177509477035
 20
7.341874531419482
 30
0.0
  0
SPLINE
  5
1D9
330
70
100
AcDbEntity
  8
Sketch Geometry(ISO)
 62
    18
420
        0
370
    18
100
AcDbSpline
210
0.0
220
0.0
230
1.0
 70
     8
 71
     3
 72
     8
 73
     4
 74
     0
 42
0.0000000001
 43
0.0000000001
 40
0.0
 40
0.0
 40
0.0
 40
0.0
 40
1.0
 40
1.0
 40
1.0
 40
1.0
 10
313.9344590167073
 20
7.640570130378681
 30
0.0
 10
313.8257959648492
 20
7.766860652402384
 30
0.0
 10
313.7094618153358
 20
7.886342390722122
 30
0.0
 10
313.5861165619574
 20
7.998337494459479
 30
0.0
  0
SPLINE
  5
1DA
330
70
100
AcDbEntity
  8
Sketch Geometry(ISO)
 62
    18
420
        0
370
    18
100
AcDbSpline
210
0.0
220
0.0
230
1.0
 70
     8
 71
     3
 72
     8
 73
     4
 74
     0
 42
0.0000000001
 43
0.0000000001
 40
0.0
 40
0.0
 40
0.0
 40
0.0
 40
1.0
 40
1.0
 40
1.0
 40
1.0
 10
313.2458048062578
 20
7.80610648767439
 30
0.0
 10
313.3665791660492
 20
7.66411623412672
 30
0.0
 10
313.5009625799686
 20
7.534289219062305
 30
0.0
 10
313.6470327537896
 20
7.418482559472028
 30
0.0
  0
LINE
  5
1DB
330
70
100
AcDbEntity
  8
Sketch Geometry(ISO)
 62
    18
420
        0
370
    18
100
AcDbLine
 10
323.3057818229817
 20
6.262371330100946
 30
0.0
 11
323.3057818229817
 21
6.11505968553453
 31
0.0
  0
LINE
  5
1DC
330
70
100
AcDbEntity
  8
Sketch Geometry(ISO)
 62
    18
420
        0
370
    18
100
AcDbLine
 10
326.6607172085664
 20
10.04498620851169
 30
0.0
 11
326.6607172085664
 21
9.912813860675758
 31
0.0
  0
LINE
  5
1DD
330
70
100
AcDbEntity
  8
Sketch Geometry(ISO)
 62
    18
420
        0
370
    18
100
AcDbLine
 10
326.6607172085664
 20
9.912813860675758
 30
0.0
 11
326.3688729419283
 21
9.912813860675758
 31
0.0
  0
SPLINE
  5
1DE
330
70
100
AcDbEntity
  8
Sketch Geometry(ISO)
 62
    18
420
        0
370
    18
100
AcDbSpline
210
0.0
220
0.0
230
1.0
 70
     8
 71
     3
 72
     8
 73
     4
 74
     0
 42
0.0000000001
 43
0.0000000001
 40
0.0
 40
0.0
 40
0.0
 40
0.0
 40
1.0
 40
1.0
 40
1.0
 40
1.0
 10
326.3688729419283
 20
9.912813860675758
 30
0.0
 10
326.2416820843433
 20
9.902249156819594
 30
0.0
 10
326.1332586275538
 20
9.816376691663498
 30
0.0
 10
326.093842363456
 20
9.694986884244034
 30
0.0
  0
SPLINE
  5
1DF
330
70
100
AcDbEntity
  8
Sketch Geometry(ISO)
 62
    18
420
        0
370
    18
100
AcDbSpline
210
0.0
220
0.0
230
1.0
 70
     8
 71
     3
 72
     8
 73
     4
 74
     0
 42
0.0000000001
 43
0.0000000001
 40
0.0
 40
0.0
 40
0.0
 40
0.0
 40
1.0
 40
1.0
 40
1.0
 40
1.0
 10
325.7790285278866
 20
9.643400195954729
 30
0.0
 10
325.7355616942771
 20
9.814764643027253
 30
0.0
 10
325.5764353053163
 20
9.931047396734117
 30
0.0
 10
325.3999647622837
 20
9.920403770173203
 30
0.0
  0
LINE
  5
1E0
330
70
100
AcDbEntity
  8
Sketch Geometry(ISO)
 62
    18
420
        0
370
    18
100
AcDbLine
 10
325.4442992039735
 20
9.920403770173203
 30
0.0
 11
325.1742979842064
 21
9.920403770173203
 31
0.0
  0
LINE
  5
1E1
330
70
100
AcDbEntity
  8
Sketch Geometry(ISO)
 62
    18
420
        0
370
    18
100
AcDbLine
 10
325.1742979842064
 20
9.920403770173203
 30
0.0
 11
325.1742979842064
 21
10.04498620851169
 31
0.0
  0
LINE
  5
1E2
330
70
100
AcDbEntity
  8
Sketch Geometry(ISO)
 62
    18
420
        0
370
    18
100
AcDbLine
 10
325.1742979842064
 20
10.04498620851169
 30
0.0
 11
326.6607172085664
 21
10.04498620851169
 31
0.0
  0
LINE
  5
1E3
330
70
100
AcDbEntity
  8
Sketch Geometry(ISO)
 62
    18
420
        0
370
    18
100
AcDbLine
 10
314.2172317098308
 20
7.127657954276647
 30
0.0
 11
314.2172317098308
 21
7.128281050222847
 31
0.0
  0
SPLINE
  5
1E4
330
70
100
AcDbEntity
  8
Sketch Geometry(ISO)
 62
    18
420
        0
370
    18
100
AcDbSpline
210
0.0
220
0.0
230
1.0
 70
     8
 71
     3
 72
     8
 73
     4
 74
     0
 42
0.0000000001
 43
0.0000000001
 40
0.0
 40
0.0
 40
0.0
 40
0.0
 40
1.0
 40
1.0
 40
1.0
 40
1.0
 10
313.6470327537896
 20
7.418482559472028
 30
0.0
 10
313.8054232060517
 20
7.269073695668954
 30
0.0
 10
314.0032908711034
 20
7.168153157390558
 30
0.0
 10
314.2172317098308
 20
7.127657954276647
 30
0.0
  0
MTEXT
  5
1E6
330
70
100
AcDbEntity
  8
Symbols(ISO)
100
AcDbMText
 10
292.6090127849207
 20
142.6792647111021
 30
0.0
 40
0.2
 41
0.0
 46
0.0
 71
     7
 72
     1
  1
\C18;\c0;\FArial|b0|i0|c1;\H2.706328;\W1.000000;DO NOT SCALE - IF IN DOUBT ASK
 73
     1
 44
1.0
  0
MTEXT
  5
1E7
330
70
100
AcDbEntity
  8
Symbols(ISO)
100
AcDbMText
 10
269.0731108946458
 20
28.10814379943049
 30
0.0
 40
0.2
 41
0.0
 46
0.0
 71
     7
 72
     1
  1
\C18;\c0;\FArial|b0|i0|c1;\H1.082531;\W1.000000;Not to be reproduced
 73
     1
 44
1.0
  0
INSERT
  5
1E9
330
70
100
AcDbEntity
  8
Symbols(ISO)
100
AcDbBlockReference
  2
Block_16
 10
0.0
 20
0.0
 30
0.0
  0
MTEXT
  5
1EE
330
70
100
AcDbEntity
  8
Symbols(ISO)
100
AcDbMText
 10
283.1377132131783
 20
5.967535186971115
 30
0.0
 40
0.2
 41
0.0
 46
0.0
 71
     7
 72
     1
  1
\C18;\c0;\FArial|b0|i0|c1;\H0.811898;\W1.000000;1.5
 73
     1
 44
1.0
  0
MTEXT
  5
1EF
330
70
100
AcDbEntity
  8
Symbols(ISO)
100
AcDbMText
 10
283.2141297374105
 20
4.653033099070879
 30
0.0
 40
0.2
 41
0.0
 46
0.0
 71
     7
 72
     1
  1
\C18;\c0;\FArial|b0|i0|c1;\H0.811898;\W1.000000;0.5
 73
     1
 44
1.0
  0
MTEXT
  5
1F0
330
70
100
AcDbEntity
  8
Symbols(ISO)
100
AcDbMText
 10
283.2141297374105
 20
3.338531011170643
 30
0.0
 40
0.2
 41
0.0
 46
0.0
 71
     7
 72
     1
  1
\C18;\c0;\FArial|b0|i0|c1;\H0.811898;\W1.000000;0.25
 73
     1
 44
1.0
  0
MTEXT
  5
1F1
330
70
100
AcDbEntity
  8
Symbols(ISO)
100
AcDbMText
 10
281.6374171930455
 20
6.042765441019622
 30
0.0
 40
0.2
 41
0.0
 46
0.0
 71
     7
 72
     1
  1
\C18;\c0;\FMyriad Pro|b0|i0|c1;\H0.811898;\W1.000000;`
 73
     1
 44
1.0
  0
MTEXT
  5
1F2
330
70
100
AcDbEntity
  8
Symbols(ISO)
100
AcDbMText
 10
281.6374171930455
 20
3.366549663231882
 30
0.0
 40
0.2
 41
0.0
 46
0.0
 71
     7
 72
     1
  1
\C18;\c0;\FMyriad Pro|b0|i0|c1;\H0.811898;\W1.000000;`
 73
     1
 44
1.0
  0
MTEXT
  5
1F3
330
70
100
AcDbEntity
  8
Symbols(ISO)
100
AcDbMText
 10
277.2602080605678
 20
5.967535186971115
 30
0.0
 40
0.2
 41
0.0
 46
0.0
 71
     7
 72
     1
  1
\C18;\c0;\FArial|b0|i0|c1;\H0.811898;\W1.000000;0.
 73
     1
 44
1.0
  0
MTEXT
  5
1F4
330
70
100
AcDbEntity
  8
Symbols(ISO)
100
AcDbMText
 10
305.2725593651424
 20
24.37427664253382
 30
0.0
 40
0.2
 41
0.0
 46
0.0
 71
     7
 72
     1
  1
\C18;\c0;\FArial|b0|i0|c1;\H1.082531;\W1.000000;drn.
 73
     1
 44
1.0
  0
MTEXT
  5
1F5
330
70
100
AcDbEntity
  8
Symbols(ISO)
100
AcDbMText
 10
296.4843791644315
 20
4.437387279884644
 30
0.0
 40
0.2
 41
0.0
 46
0.0
 71
     7
 72
     1
  1
\C18;\c0;\FArial|b0|i0|c1;\H0.541266;\W1.000000;P.C.HENDERSON LIMITED, BOWBURN, DURHAM DH6 5NG ENGLAND
 73
     1
 44
1.0
  0
MTEXT
  5
1F6
330
70
100
AcDbEntity
  8
Symbols(ISO)
100
AcDbMText
 10
270.5004785497251
 20
2.132676939960944
 30
0.0
 40
0.2
 41
0.0
 46
0.0
 71
     7
 72
     1
  1
\C18;\c0;\FArial|b0|i0|c1;\H0.811898;\W1.000000;angles
 73
     1
 44
1.0
  0
MTEXT
  5
1F7
330
70
100
AcDbEntity
  8
Symbols(ISO)
100
AcDbMText
 10
270.4667166139697
 20
6.044239699654033
 30
0.0
 40
0.2
 41
0.0
 46
0.0
 71
     7
 72
     1
  1
\C18;\c0;\FArial|b0|i0|c1;\H0.811898;\W1.000000;metric
 73
     1
 44
1.0
  0
MTEXT
  5
1F8
330
70
100
AcDbEntity
  8
Symbols(ISO)
100
AcDbMText
 10
299.6568384057173
 20
24.37427664253382
 30
0.0
 40
0.2
 41
0.0
 46
0.0
 71
     7
 72
     1
  1
\C18;\c0;\FArial|b0|i0|c1;\H1.082531;\W1.000000;date
 73
     1
 44
1.0
  0
MTEXT
  5
1F9
330
70
100
AcDbEntity
  8
Symbols(ISO)
100
AcDbMText
 10
277.2602080605678
 20
4.653033099070879
 30
0.0
 40
0.2
 41
0.0
 46
0.0
 71
     7
 72
     1
  1
\C18;\c0;\FArial|b0|i0|c1;\H0.811898;\W1.000000;0.0
 73
     1
 44
1.0
  0
MTEXT
  5
1FA
330
70
100
AcDbEntity
  8
Symbols(ISO)
100
AcDbMText
 10
281.6374171930455
 20
4.71971352777108
 30
0.0
 40
0.2
 41
0.0
 46
0.0
 71
     7
 72
     1
  1
\C18;\c0;\FMyriad Pro|b0|i0|c1;\H0.811898;\W1.000000;`
 73
     1
 44
1.0
  0
MTEXT
  5
1FB
330
70
100
AcDbEntity
  8
Symbols(ISO)
100
AcDbMText
 10
281.6374171930455
 20
1.983273510966922
 30
0.0
 40
0.2
 41
0.0
 46
0.0
 71
     7
 72
     1
  1
\C18;\c0;\FMyriad Pro|b0|i0|c1;\H0.811898;\W1.000000;`
 73
     1
 44
1.0
  0
MTEXT
  5
1FC
330
70
100
AcDbEntity
  8
Symbols(ISO)
100
AcDbMText
 10
293.859819296381
 20
24.37427664253382
 30
0.0
 40
0.2
 41
0.0
 46
0.0
 71
     7
 72
     1
  1
\C18;\c0;\FArial|b0|i0|c1;\H1.082531;\W1.000000;cir no
 73
     1
 44
1.0
  0
MTEXT
  5
1FD
330
70
100
AcDbEntity
  8
Symbols(ISO)
100
AcDbMText
 10
288.5136339949831
 20
24.37427664253382
 30
0.0
 40
0.2
 41
0.0
 46
0.0
 71
     7
 72
     1
  1
\C18;\c0;\FArial|b0|i0|c1;\H1.082531;\W1.000000;issue
 73
     1
 44
1.0
  0
MTEXT
  5
1FE
330
70
100
AcDbEntity
  8
Symbols(ISO)
100
AcDbMText
 10
269.1380940082363
 20
29.85513826259644
 30
0.0
 40
0.2
 41
0.0
 46
0.0
 71
     7
 72
     1
  1
\C18;\c0;\FArial|b0|i0|c1;\H1.082531;\W1.000000;of P.C.Henderson Ltd.
 73
     1
 44
1.0
  0
MTEXT
  5
1FF
330
70
100
AcDbEntity
  8
Symbols(ISO)
100
AcDbMText
 10
269.1838707144966
 20
26.460911765371
 30
0.0
 40
0.2
 41
0.0
 46
0.0
 71
     7
 72
     1
  1
\C18;\c0;\FArial|b0|i0|c1;\H1.082531;\W1.000000;without written
 73
     1
 44
1.0
  0
MTEXT
  5
200
330
70
100
AcDbEntity
  8
Symbols(ISO)
100
AcDbMText
 10
269.1129878748875
 20
32.25232990306295
 30
0.0
 40
0.2
 41
0.0
 46
0.0
 71
     7
 72
     1
  1
\C18;\c0;\FArial|b0|i0|c1;\H1.082531;\W1.000000;Copyright property
 73
     1
 44
1.0
  0
MTEXT
  5
201
330
70
100
AcDbEntity
  8
Symbols(ISO)
100
AcDbMText
 10
269.0886138243294
 20
24.7942687714368
 30
0.0
 40
0.2
 41
0.0
 46
0.0
 71
     7
 72
     1
  1
\C18;\c0;\FArial|b0|i0|c1;\H1.082531;\W1.000000;permission.
 73
     1
 44
1.0
  0
MTEXT
  5
202
330
70
100
AcDbEntity
  8
Symbols(ISO)
100
AcDbMText
 10
270.4689128623416
 20
8.673243875454506
 30
0.0
 40
0.2
 41
0.0
 46
0.0
 71
     7
 72
     1
  1
\C18;\c0;\FArial|b0|i0|c1;\H0.811898;\W1.000000;unless otherwise stated
 73
     1
 44
1.0
  0
MTEXT
  5
203
330
70
100
AcDbEntity
  8
Symbols(ISO)
100
AcDbMText
 10
270.5215366958788
 20
7.506641015189448
 30
0.0
 40
0.2
 41
0.0
 46
0.0
 71
     7
 72
     1
  1
\C18;\c0;\FArial|b0|i0|c1;\H0.811898;\W1.000000;tolerances are,
 73
     1
 44
1.0
  0
MTEXT
  5
204
330
70
100
AcDbEntity
  8
Symbols(ISO)
100
AcDbMText
 10
277.2602080605678
 20
3.338531011170643
 30
0.0
 40
0.2
 41
0.0
 46
0.0
 71
     7
 72
     1
  1
\C18;\c0;\FArial|b0|i0|c1;\H0.811898;\W1.000000;0.00
 73
     1
 44
1.0
  0
MTEXT
  5
205
330
70
100
AcDbEntity
  8
Symbols(ISO)
100
AcDbMText
 10
269.048004761297
 20
21.13101530606436
 30
0.0
 40
0.2
 41
0.0
 46
0.0
 71
     7
 72
     1
  1
\C18;\c0;\FArial|b0|i0|c1;\H1.353164;\W1.000000;Material
 73
     1
 44
1.0
  0
MTEXT
  5
206
330
70
100
AcDbEntity
  8
Symbols(ISO)
100
AcDbMText
 10
269.0332339144041
 20
16.80089093953893
 30
0.0
 40
0.2
 41
0.0
 46
0.0
 71
     7
 72
     1
  1
\C18;\c0;\FArial|b0|i0|c1;\H1.353164;\W1.000000;Finish
 73
     1
 44
1.0
  0
MTEXT
  5
207
330
70
100
AcDbEntity
  8
Symbols(ISO)
100
AcDbMText
 10
344.9189550597121
 20
1.099858172459613
 30
0.0
 40
0.2
 41
0.0
 46
0.0
 71
     7
 72
     1
  1
\C18;\c0;\FArial|b0|i0|c1;\H1.082531;\W1.000000;sheet                   of
 73
     1
 44
1.0
  0
MTEXT
  5
208
330
70
100
AcDbEntity
  8
Symbols(ISO)
100
AcDbMText
 10
344.827358583498
 20
3.262292124674403
 30
0.0
 40
0.2
 41
0.0
 46
0.0
 71
     7
 72
     1
  1
\C18;\c0;\FTahoma|b0|i0|c1;\H1.082531;\W1.000000;.................................................
 73
     1
 44
1.0
  0
MTEXT
  5
209
330
70
100
AcDbEntity
  8
Symbols(ISO)
100
AcDbMText
 10
318.3991698422752
 20
20.58974908737847
 30
0.0
 40
0.2
 41
0.0
 46
0.0
 71
     7
 72
     1
  1
\C18;\c0;\FArial|b0|i0|c1;\H1.353164;\W1.000000;Title
 73
     1
 44
1.0
  0
MTEXT
  5
20A
330
70
100
AcDbEntity
  8
Symbols(ISO)
100
AcDbMText
 10
298.9916119993623
 20
3.422761913609472
 30
0.0
 40
0.2
 41
0.0
 46
0.0
 71
     7
 72
     1
  1
\C18;\c0;\FArial|b0|i0|c1;\H0.595392;\W1.000000;Telephone: (0191) 3770701  Fax No.: (0191) 3771309
 73
     1
 44
1.0
  0
MTEXT
  5
20B
330
70
100
AcDbEntity
  8
Symbols(ISO)
100
AcDbMText
 10
315.5071198416419
 20
24.39307125329437
 30
0.0
 40
0.2
 41
0.0
 46
0.0
 71
     7
 72
     1
  1
\C18;\c0;\FArial|b0|i0|c1;\H1.082531;\W1.000000;appd.
 73
     1
 44
1.0
  0
MTEXT
  5
20C
330
70
100
AcDbEntity
  8
Symbols(ISO)
100
AcDbMText
 10
321.0515919200627
 20
24.37427664253382
 30
0.0
 40
0.2
 41
0.0
 46
0.0
 71
     7
 72
     1
  1
\C18;\c0;\FArial|b0|i0|c1;\H1.082531;\W1.000000;remarks
 73
     1
 44
1.0
  0
MTEXT
  5
20D
330
70
100
AcDbEntity
  8
Symbols(ISO)
100
AcDbMText
 10
328.0858309455393
 20
0.9709854434817799
 30
0.0
 40
0.2
 41
0.0
 46
0.0
 71
     7
 72
     1
  1
\C18;\c0;\FArial|b0|i0|c1;\H1.082531;\W1.000000;in millimetres
 73
     1
 44
1.0
  0
MTEXT
  5
20E
330
70
100
AcDbEntity
  8
Symbols(ISO)
100
AcDbMText
 10
328.1316076517996
 20
2.723654809906651
 30
0.0
 40
0.2
 41
0.0
 46
0.0
 71
     7
 72
     1
  1
\C18;\c0;\FArial|b0|i0|c1;\H1.082531;\W1.000000;all dimensions
 73
     1
 44
1.0
  0
MTEXT
  5
20F
330
70
100
AcDbEntity
  8
Symbols(ISO)
100
AcDbMText
 10
309.9670833236584
 20
24.36411361085233
 30
0.0
 40
0.2
 41
0.0
 46
0.0
 71
     7
 72
     1
  1
\C18;\c0;\FArial|b0|i0|c1;\H1.082531;\W1.000000;ch,kd.
 73
     1
 44
1.0
  0
MTEXT
  5
210
330
70
100
AcDbEntity
  8
Symbols(ISO)
100
AcDbMText
 10
328.1397251580367
 20
8.677575813879123
 30
0.0
 40
0.2
 41
0.0
 46
0.0
 71
     7
 72
     1
  1
\C18;\c0;\FArial|b0|i0|c1;\H1.082531;\W1.000000;scale
 73
     1
 44
1.0
  0
MTEXT
  5
211
330
70
100
AcDbEntity
  8
Symbols(ISO)
100
AcDbMText
 10
316.3416296274033
 20
35.5919973920216
 30
0.0
 40
0.2
 41
0.0
 46
0.0
 71
     7
 72
     1
  1
\C18;\c0;\FArial|b0|i0|c1;\H1.515543;\W1.000000;CD = CRITICAL DIMENSION CONTROLLED TO Cpk 1.33
 73
     1
 44
1.0
  0
INSERT
  5
213
330
70
100
AcDbEntity
  8
Symbols(ISO)
100
AcDbBlockReference
  2
Block_17
 10
0.0
 20
0.0
 30
0.0
  0
INSERT
  5
217
330
70
100
AcDbEntity
  8
Symbols(ISO)
100
AcDbBlockReference
  2
Block_18
 10
0.0
 20
0.0
 30
0.0
  0
INSERT
  5
21B
330
70
100
AcDbEntity
  8
Symbols(ISO)
100
AcDbBlockReference
  2
Block_19
 10
0.0
 20
0.0
 30
0.0
  0
INSERT
  5
21F
330
70
100
AcDbEntity
  8
Symbols(ISO)
100
AcDbBlockReference
  2
Block_20
 10
0.0
 20
0.0
 30
0.0
  0
INSERT
  5
223
330
70
100
AcDbEntity
  8
Symbols(ISO)
100
AcDbBlockReference
  2
Block_21
 10
0.0
 20
0.0
 30
0.0
  0
INSERT
  5
227
330
70
100
AcDbEntity
  8
Symbols(ISO)
100
AcDbBlockReference
  2
Block_22
 10
0.0
 20
0.0
 30
0.0
  0
INSERT
  5
22B
330
70
100
AcDbEntity
  8
Symbols(ISO)
100
AcDbBlockReference
  2
Block_23
 10
0.0
 20
0.0
 30
0.0
  0
INSERT
  5
22F
330
70
100
AcDbEntity
  8
Symbols(ISO)
100
AcDbBlockReference
  2
Block_24
 10
0.0
 20
0.0
 30
0.0
  0
INSERT
  5
233
330
70
100
AcDbEntity
  8
Symbols(ISO)
100
AcDbBlockReference
  2
Block_25
 10
0.0
 20
0.0
 30
0.0
  0
INSERT
  5
237
330
70
100
AcDbEntity
  8
Symbols(ISO)
100
AcDbBlockReference
  2
Block_26
 10
0.0
 20
0.0
 30
0.0
  0
INSERT
  5
23B
330
70
100
AcDbEntity
  8
Symbols(ISO)
100
AcDbBlockReference
  2
Block_27
 10
0.0
 20
0.0
 30
0.0
  0
INSERT
  5
23F
330
70
100
AcDbEntity
  8
Symbols(ISO)
100
AcDbBlockReference
  2
Block_28
 10
0.0
 20
0.0
 30
0.0
  0
INSERT
  5
243
330
70
100
AcDbEntity
  8
Symbols(ISO)
100
AcDbBlockReference
  2
Block_29
 10
0.0
 20
0.0
 30
0.0
  0
INSERT
  5
247
330
70
100
AcDbEntity
  8
Symbols(ISO)
100
AcDbBlockReference
  2
Block_30
 10
0.0
 20
0.0
 30
0.0
  0
INSERT
  5
24B
330
70
100
AcDbEntity
  8
Symbols(ISO)
100
AcDbBlockReference
  2
Block_31
 10
0.0
 20
0.0
 30
0.0
  0
INSERT
  5
24F
330
70
100
AcDbEntity
  8
Symbols(ISO)
100
AcDbBlockReference
  2
Block_32
 10
0.0
 20
0.0
 30
0.0
  0
INSERT
  5
253
330
70
100
AcDbEntity
  8
Symbols(ISO)
100
AcDbBlockReference
  2
Block_33
 10
0.0
 20
0.0
 30
0.0
  0
INSERT
  5
257
330
70
100
AcDbEntity
  8
Symbols(ISO)
100
AcDbBlockReference
  2
Block_34
 10
0.0
 20
0.0
 30
0.0
  0
INSERT
  5
25B
330
70
100
AcDbEntity
  8
Symbols(ISO)
100
AcDbBlockReference
  2
Block_35
 10
0.0
 20
0.0
 30
0.0
  0
INSERT
  5
25F
330
70
100
AcDbEntity
  8
Symbols(ISO)
100
AcDbBlockReference
  2
Block_36
 10
0.0
 20
0.0
 30
0.0
  0
INSERT
  5
263
330
70
100
AcDbEntity
  8
Symbols(ISO)
100
AcDbBlockReference
  2
Block_37
 10
0.0
 20
0.0
 30
0.0
  0
INSERT
  5
267
330
70
100
AcDbEntity
  8
Symbols(ISO)
100
AcDbBlockReference
  2
Block_38
 10
0.0
 20
0.0
 30
0.0
  0
INSERT
  5
26B
330
70
100
AcDbEntity
  8
Symbols(ISO)
100
AcDbBlockReference
  2
Block_39
 10
0.0
 20
0.0
 30
0.0
  0
INSERT
  5
26F
330
70
100
AcDbEntity
  8
Symbols(ISO)
100
AcDbBlockReference
  2
Block_40
 10
0.0
 20
0.0
 30
0.0
  0
INSERT
  5
273
330
70
100
AcDbEntity
  8
Symbols(ISO)
100
AcDbBlockReference
  2
Block_41
 10
0.0
 20
0.0
 30
0.0
  0
INSERT
  5
277
330
70
100
AcDbEntity
  8
Symbols(ISO)
100
AcDbBlockReference
  2
Block_42
 10
0.0
 20
0.0
 30
0.0
  0
INSERT
  5
27B
330
70
100
AcDbEntity
  8
Symbols(ISO)
100
AcDbBlockReference
  2
Block_43
 10
0.0
 20
0.0
 30
0.0
  0
INSERT
  5
27F
330
70
100
AcDbEntity
  8
Symbols(ISO)
100
AcDbBlockReference
  2
Block_44
 10
0.0
 20
0.0
 30
0.0
  0
LINE
  5
283
330
70
100
AcDbEntity
  8
Visible Edges(ISO)
 62
    18
420
        0
370
    50
100
AcDbLine
 10
310.9646711783887
 20
125.6471200251144
 30
0.0
 11
324.6260269449562
 21
125.6471200251144
 31
0.0
  0
LINE
  5
284
330
70
100
AcDbEntity
  8
Visible Edges(ISO)
 62
    18
420
        0
370
    50
100
AcDbLine
 10
303.7459256318925
 20
109.8897975262123
 30
0.0
 11
307.8973635985828
 21
109.8897975262123
 31
0.0
  0
LINE
  5
285
330
70
100
AcDbEntity
  8
Visible Edges(ISO)
 62
    18
420
        0
370
    50
100
AcDbLine
 10
309.7387077271633
 20
123.9296381970669
 30
0.0
 11
310.6131088953237
 21
125.4441454463601
 31
0.0
  0
LINE
  5
286
330
70
100
AcDbEntity
  8
Visible Edges(ISO)
 62
    18
420
        0
370
    50
100
AcDbLine
 10
325.2684294860799
 20
125.6471200251144
 30
0.0
 11
338.9297852529612
 21
125.6471200251144
 31
0.0
  0
LINE
  5
287
330
70
100
AcDbEntity
  8
Visible Edges(ISO)
 62
    18
420
        0
370
    50
100
AcDbLine
 10
307.4914144510245
 20
128.9015539311687
 30
0.0
 11
342.4030419803254
 21
128.9015539311687
 31
0.0
  0
SPLINE
  5
288
330
70
100
AcDbEntity
  8
Visible Edges(ISO)
 62
    18
420
        0
370
    50
100
AcDbSpline
210
0.0
220
0.0
230
1.0
 70
     8
 71
     3
 72
     8
 73
     4
 74
     0
 42
0.0000000001
 43
0.0000000001
 40
0.0
 40
0.0
 40
0.0
 40
0.0
 40
1.0
 40
1.0
 40
1.0
 40
1.0
 10
307.4914144510245
 20
128.9015539311687
 30
0.0
 10
306.8188158642767
 20
128.9015539311687
 30
0.0
 10
306.2735669784049
 20
128.3563050452969
 30
0.0
 10
306.2735669784049
 20
127.6837064585491
 30
0.0
  0
LINE
  5
289
330
70
100
AcDbEntity
  8
Visible Edges(ISO)
 62
    18
420
        0
370
    50
100
AcDbLine
 10
306.2735669785333
 20
127.6837064586036
 30
0.0
 11
306.2735669782731
 21
121.9012068457161
 31
0.0
  0
LINE
  5
28A
330
70
100
AcDbEntity
  8
Visible Edges(ISO)
 62
    18
420
        0
370
    50
100
AcDbLine
 10
306.110406354965
 20
121.2922831096144
 30
0.0
 11
303.1154394014775
 21
116.1048481774435
 31
0.0
  0
SPLINE
  5
28B
330
70
100
AcDbEntity
  8
Visible Edges(ISO)
 62
    18
420
        0
370
    50
100
AcDbSpline
210
0.0
220
0.0
230
1.0
 70
     8
 71
     3
 72
    11
 73
     7
 74
     0
 42
0.0000000001
 43
0.0000000001
 40
0.0
 40
0.0
 40
0.0
 40
0.0
 40
1.0
 40
1.0
 40
1.0
 40
2.0
 40
2.0
 40
2.0
 40
2.0
 10
300.5841909633383
 20
116.1048481774352
 30
0.0
 10
300.9877501153876
 20
115.4058632222277
 30
0.0
 10
301.8815387107714
 20
115.1663732898914
 30
0.0
 10
302.5805236659786
 20
115.569932441941
 30
0.0
 10
302.8026871185769
 20
115.6981985711029
 30
0.0
 10
302.987173272317
 20
115.8826847248441
 30
0.0
 10
303.1154394014775
 20
116.1048481774435
 30
0.0
  0
LINE
  5
28C
330
70
100
AcDbEntity
  8
Visible Edges(ISO)
 62
    18
420
        0
370
    50
100
AcDbLine
 10
300.5841909633383
 20
116.1048481774352
 30
0.0
 11
300.2310843079501
 21
116.7164468450567
 31
0.0
  0
SPLINE
  5
28D
330
70
100
AcDbEntity
  8
Visible Edges(ISO)
 62
    18
420
        0
370
    50
100
AcDbSpline
210
0.0
220
0.0
230
1.0
 70
     8
 71
     3
 72
     8
 73
     4
 74
     0
 42
0.0000000001
 43
0.0000000001
 40
0.0
 40
0.0
 40
0.0
 40
0.0
 40
1.0
 40
1.0
 40
1.0
 40
1.0
 10
300.2310843079501
 20
116.7164468450567
 30
0.0
 10
300.0860526427089
 20
116.9676490579602
 30
0.0
 10
299.8180230722838
 20
117.1223960025957
 30
0.0
 10
299.5279597418017
 20
117.122396002596
 30
0.0
  0
LINE
  5
28E
330
70
100
AcDbEntity
  8
Visible Edges(ISO)
 62
    18
420
        0
370
    50
100
AcDbLine
 10
299.5279597418017
 20
117.122396002596
 30
0.0
 11
298.9664821324916
 21
117.122396002596
 31
0.0
  0
SPLINE
  5
28F
330
70
100
AcDbEntity
  8
Visible Edges(ISO)
 62
    18
420
        0
370
    50
100
AcDbSpline
210
0.0
220
0.0
230
1.0
 70
     8
 71
     3
 72
     8
 73
     4
 74
     0
 42
0.0000000001
 43
0.0000000001
 40
0.0
 40
0.0
 40
0.0
 40
0.0
 40
1.0
 40
1.0
 40
1.0
 40
1.0
 10
298.9664821324916
 20
117.122396002596
 30
0.0
 10
298.5180830746598
 20
117.122396002596
 30
0.0
 10
298.1545838174117
 20
116.7588967453479
 30
0.0
 10
298.1545838174117
 20
116.310497687516
 30
0.0
  0
LINE
  5
290
330
70
100
AcDbEntity
  8
Visible Edges(ISO)
 62
    18
420
        0
370
    50
100
AcDbLine
 10
298.1545838174117
 20
116.310497687516
 30
0.0
 11
298.1545838174117
 21
69.70732609077602
 31
0.0
  0
SPLINE
  5
291
330
70
100
AcDbEntity
  8
Visible Edges(ISO)
 62
    18
420
        0
370
    50
100
AcDbSpline
210
0.0
220
0.0
230
1.0
 70
     8
 71
     3
 72
    11
 73
     7
 74
     0
 42
0.0000000001
 43
0.0000000001
 40
0.0
 40
0.0
 40
0.0
 40
0.0
 40
1.0
 40
1.0
 40
1.0
 40
2.0
 40
2.0
 40
2.0
 40
2.0
 10
298.1545838174091
 20
69.70732609123739
 30
0.0
 10
298.1545838174091
 20
68.98988759870627
 30
0.0
 10
298.7361826290057
 20
68.40828878710972
 30
0.0
 10
299.4536211215368
 20
68.40828878710972
 30
0.0
 10
300.1710596140679
 20
68.40828878710972
 30
0.0
 10
300.7526584256644
 20
68.98988759870627
 30
0.0
 10
300.7526584256644
 20
69.70732609123739
 30
0.0
  0
SPLINE
  5
292
330
70
100
AcDbEntity
  8
Visible Edges(ISO)
 62
    18
420
        0
370
    50
100
AcDbSpline
210
0.0
220
0.0
230
1.0
 70
     8
 71
     3
 72
    11
 73
     7
 74
     0
 42
0.0000000001
 43
0.0000000001
 40
0.0
 40
0.0
 40
0.0
 40
0.0
 40
1.0
 40
1.0
 40
1.0
 40
2.0
 40
2.0
 40
2.0
 40
2.0
 10
301.6616721544012
 20
69.95089558576061
 30
0.0
 10
301.5271524370515
 20
70.18389057082934
 30
0.0
 10
301.2292229052577
 20
70.2637205482754
 30
0.0
 10
300.996227920189
 20
70.12920083092545
 30
0.0
 10
300.8455065924467
 20
70.04218183178093
 30
0.0
 10
300.7526584256654
 20
69.88136408952641
 30
0.0
 10
300.7526584256654
 20
69.70732609123739
 30
0.0
  0
LINE
  5
293
330
70
100
AcDbEntity
  8
Visible Edges(ISO)
 62
    18
420
        0
370
    50
100
AcDbLine
 10
301.6616721544008
 20
69.95089558576061
 30
0.0
 11
301.9663594460909
 21
69.42316171613343
 31
0.0
  0
SPLINE
  5
294
330
70
100
AcDbEntity
  8
Visible Edges(ISO)
 62
    18
420
        0
370
    50
100
AcDbSpline
210
0.0
220
0.0
230
1.0
 70
     8
 71
     3
 72
     8
 73
     4
 74
     0
 42
0.0000000001
 43
0.0000000001
 40
0.0
 40
0.0
 40
0.0
 40
0.0
 40
1.0
 40
1.0
 40
1.0
 40
1.0
 10
301.9663594460909
 20
69.42316171613343
 30
0.0
 10
302.0388752787386
 20
69.29756060963433
 30
0.0
 10
302.172890064022
 20
69.22018713730922
 30
0.0
 10
302.3179217293176
 20
69.22018713736378
 30
0.0
  0
LINE
  5
295
330
70
100
AcDbEntity
  8
Visible Edges(ISO)
 62
    18
420
        0
370
    50
100
AcDbLine
 10
302.3179217293176
 20
69.22018713736378
 30
0.0
 11
309.122419016201
 21
69.22018713991644
 31
0.0
  0
SPLINE
  5
296
330
70
100
AcDbEntity
  8
Visible Edges(ISO)
 62
    18
420
        0
370
    50
100
AcDbSpline
210
0.0
220
0.0
230
1.0
 70
     8
 71
     3
 72
     8
 73
     4
 74
     0
 42
0.0000000001
 43
0.0000000001
 40
0.0
 40
0.0
 40
0.0
 40
0.0
 40
1.0
 40
1.0
 40
1.0
 40
1.0
 10
309.122419016201
 20
69.22018713991644
 30
0.0
 10
309.7923042175961
 20
69.22400679008662
 30
0.0
 10
310.3333333818818
 20
69.76813850871597
 30
0.0
 10
310.3333224993331
 20
70.43803459965619
 30
0.0
  0
LINE
  5
297
330
70
100
AcDbEntity
  8
Visible Edges(ISO)
 62
    18
420
        0
370
    50
100
AcDbLine
 10
310.3333224993331
 20
70.43803459965748
 30
0.0
 11
310.3333225000358
 21
71.2499329276035
 31
0.0
  0
SPLINE
  5
298
330
70
100
AcDbEntity
  8
Visible Edges(ISO)
 62
    18
420
        0
370
    50
100
AcDbSpline
210
0.0
220
0.0
230
1.0
 70
     8
 71
     3
 72
    11
 73
     7
 74
     0
 42
0.0000000001
 43
0.0000000001
 40
0.0
 40
0.0
 40
0.0
 40
0.0
 40
1.0
 40
1.0
 40
1.0
 40
2.0
 40
2.0
 40
2.0
 40
2.0
 10
310.3333225000358
 20
71.24993292761505
 30
0.0
 10
310.3333225000358
 20
71.92253151436286
 30
0.0
 10
309.788073614164
 20
72.46778040023497
 30
0.0
 10
309.1154750274161
 20
72.46778040023497
 30
0.0
 10
309.115475027258
 20
72.46778040023497
 30
0.0
 10
309.115475027258
 20
72.46778040023497
 30
0.0
 10
309.1154750270998
 20
72.46778040023497
 30
0.0
  0
LINE
  5
299
330
70
100
AcDbEntity
  8
Visible Edges(ISO)
 62
    18
420
        0
370
    50
100
AcDbLine
 10
309.1154750270998
 20
72.46778040023497
 30
0.0
 11
305.9106277273861
 21
72.4677803994027
 31
0.0
  0
SPLINE
  5
29A
330
70
100
AcDbEntity
  8
Visible Edges(ISO)
 62
    18
420
        0
370
    50
100
AcDbSpline
210
0.0
220
0.0
230
1.0
 70
     8
 71
     3
 72
     8
 73
     4
 74
     0
 42
0.0000000001
 43
0.0000000001
 40
0.0
 40
0.0
 40
0.0
 40
0.0
 40
1.0
 40
1.0
 40
1.0
 40
1.0
 10
305.2075031612933
 20
72.87372955698117
 30
0.0
 10
305.3525348265149
 20
72.62252734407922
 30
0.0
 10
305.620564396916
 20
72.46778039943028
 30
0.0
 10
305.9106277273861
 20
72.4677803994027
 30
0.0
  0
LINE
  5
29B
330
70
100
AcDbEntity
  8
Visible Edges(ISO)
 62
    18
420
        0
370
    50
100
AcDbLine
 10
305.2075031612933
 20
72.87372955698117
 30
0.0
 11
301.5109508266018
 21
79.27634600144607
 31
0.0
  0
SPLINE
  5
29C
330
70
100
AcDbEntity
  8
Visible Edges(ISO)
 62
    18
420
        0
370
    50
100
AcDbSpline
210
0.0
220
0.0
230
1.0
 70
     8
 71
     3
 72
     8
 73
     4
 74
     0
 42
0.0000000001
 43
0.0000000001
 40
0.0
 40
0.0
 40
0.0
 40
0.0
 40
1.0
 40
1.0
 40
1.0
 40
1.0
 10
301.402177077693
 20
79.68229515894754
 30
0.0
 10
301.402177077693
 20
79.53977723767287
 30
0.0
 10
301.4396918659712
 20
79.3997701417683
 30
0.0
 10
301.5109508266015
 20
79.27634600144607
 30
0.0
  0
LINE
  5
29D
330
70
100
AcDbEntity
  8
Visible Edges(ISO)
 62
    18
420
        0
370
    50
100
AcDbLine
 10
301.402177077693
 20
79.68229515894498
 30
0.0
 11
301.4021770776086
 21
106.424656767207
 31
0.0
  0
SPLINE
  5
29E
330
70
100
AcDbEntity
  8
Visible Edges(ISO)
 62
    18
420
        0
370
    50
100
AcDbSpline
210
0.0
220
0.0
230
1.0
 70
     8
 71
     3
 72
     8
 73
     4
 74
     0
 42
0.0000000001
 43
0.0000000001
 40
0.0
 40
0.0
 40
0.0
 40
0.0
 40
1.0
 40
1.0
 40
1.0
 40
1.0
 10
301.5109508265373
 20
106.8306059247466
 30
0.0
 10
301.4396918658939
 20
106.707181784416
 30
0.0
 10
301.4021770776086
 20
106.5671746884986
 30
0.0
 10
301.4021770776086
 20
106.4246567672105
 30
0.0
  0
LINE
  5
29F
330
70
100
AcDbEntity
  8
Visible Edges(ISO)
 62
    18
420
        0
370
    50
100
AcDbLine
 10
301.5109508265373
 20
106.8306059247466
 30
0.0
 11
303.0428010657416
 21
109.4838483686685
 31
0.0
  0
SPLINE
  5
2A0
330
70
100
AcDbEntity
  8
Visible Edges(ISO)
 62
    18
420
        0
370
    50
100
AcDbSpline
210
0.0
220
0.0
230
1.0
 70
     8
 71
     3
 72
     8
 73
     4
 74
     0
 42
0.0000000001
 43
0.0000000001
 40
0.0
 40
0.0
 40
0.0
 40
0.0
 40
1.0
 40
1.0
 40
1.0
 40
1.0
 10
307.8973635985828
 20
109.8897975262123
 30
0.0
 10
308.7941617142466
 20
109.8897975262123
 30
0.0
 10
309.5211602287428
 20
110.6167960407081
 30
0.0
 10
309.5211602287428
 20
111.5135941563719
 30
0.0
  0
LINE
  5
2A1
330
70
100
AcDbEntity
  8
Visible Edges(ISO)
 62
    18
420
        0
370
    50
100
AcDbLine
 10
309.5211602287428
 20
111.5135941562987
 30
0.0
 11
309.5211602290498
 21
118.3400351894288
 31
0.0
  0
LINE
  5
2A2
330
70
100
AcDbEntity
  8
Visible Edges(ISO)
 62
    18
420
        0
370
    50
100
AcDbLine
 10
310.3330585441298
 20
119.1519335044722
 30
0.0
 11
314.7984992769806
 21
119.1519335044722
 31
0.0
  0
LINE
  5
2A3
330
70
100
AcDbEntity
  8
Visible Edges(ISO)
 62
    18
420
        0
370
    50
100
AcDbLine
 10
315.6103975920605
 20
119.9638318195518
 30
0.0
 11
315.6103975920605
 21
120.7757301346684
 31
0.0
  0
LINE
  5
2A4
330
70
100
AcDbEntity
  8
Visible Edges(ISO)
 62
    18
420
        0
370
    50
100
AcDbLine
 10
314.7984992770172
 20
121.587628449748
 30
0.0
 11
310.3330585442757
 21
121.5876284499492
 31
0.0
  0
LINE
  5
2A5
330
70
100
AcDbEntity
  8
Visible Edges(ISO)
 62
    18
420
        0
370
    50
100
AcDbLine
 10
309.5211602292324
 20
122.3995267650654
 30
0.0
 11
309.5211602292648
 21
123.1177398819969
 31
0.0
  0
SPLINE
  5
2A6
330
70
100
AcDbEntity
  8
Visible Edges(ISO)
 62
    18
420
        0
370
    50
100
AcDbSpline
210
0.0
220
0.0
230
1.0
 70
     8
 71
     3
 72
     8
 73
     4
 74
     0
 42
0.0000000001
 43
0.0000000001
 40
0.0
 40
0.0
 40
0.0
 40
0.0
 40
1.0
 40
1.0
 40
1.0
 40
1.0
 10
310.9646711783887
 20
125.6471200251141
 30
0.0
 10
310.8196395131542
 20
125.6471200251141
 30
0.0
 10
310.6856247279467
 20
125.5697465528031
 30
0.0
 10
310.6131088953237
 20
125.4441454463601
 30
0.0
  0
LINE
  5
2A7
330
70
100
AcDbEntity
  8
Visible Edges(ISO)
 62
    18
420
        0
370
    50
100
AcDbLine
 10
324.6260269449562
 20
125.6471200251144
 30
0.0
 11
324.9472282155179
 21
125.9683212956761
 31
0.0
  0
LINE
  5
2A8
330
70
100
AcDbEntity
  8
Visible Edges(ISO)
 62
    18
420
        0
370
    50
100
AcDbLine
 10
324.9472282155179
 20
125.9683212956761
 30
0.0
 11
325.2684294860799
 21
125.6471200251144
 31
0.0
  0
SPLINE
  5
2A9
330
70
100
AcDbEntity
  8
Visible Edges(ISO)
 62
    18
420
        0
370
    50
100
AcDbSpline
210
0.0
220
0.0
230
1.0
 70
     8
 71
     3
 72
     8
 73
     4
 74
     0
 42
0.0000000001
 43
0.0000000001
 40
0.0
 40
0.0
 40
0.0
 40
0.0
 40
1.0
 40
1.0
 40
1.0
 40
1.0
 10
346.8516553656086
 20
109.4838483686685
 30
0.0
 10
346.7066237003681
 20
109.7350505815749
 30
0.0
 10
346.4385941299416
 20
109.8897975262123
 30
0.0
 10
346.1485307994574
 20
109.8897975262123
 30
0.0
  0
SPLINE
  5
2AA
330
70
100
AcDbEntity
  8
Visible Edges(ISO)
 62
    18
420
        0
370
    50
100
AcDbSpline
210
0.0
220
0.0
230
1.0
 70
     8
 71
     3
 72
     8
 73
     4
 74
     0
 42
0.0000000001
 43
0.0000000001
 40
0.0
 40
0.0
 40
0.0
 40
0.0
 40
1.0
 40
1.0
 40
1.0
 40
1.0
 10
303.7459256318925
 20
109.8897975262123
 30
0.0
 10
303.4558623014086
 20
109.8897975262123
 30
0.0
 10
303.1878327309821
 20
109.7350505815749
 30
0.0
 10
303.0428010657416
 20
109.4838483686685
 30
0.0
  0
LINE
  5
2AB
330
70
100
AcDbEntity
  8
Visible Edges(ISO)
 62
    18
420
        0
370
    50
100
AcDbLine
 10
348.3835056048129
 20
106.8306059247466
 30
0.0
 11
346.8516553656086
 21
109.4838483686685
 31
0.0
  0
LINE
  5
2AC
330
70
100
AcDbEntity
  8
Visible Edges(ISO)
 62
    18
420
        0
370
    50
100
AcDbLine
 10
340.3732962021178
 20
122.3995267650654
 30
0.0
 11
340.3732962020854
 21
123.1177398819969
 31
0.0
  0
SPLINE
  5
2AD
330
70
100
AcDbEntity
  8
Visible Edges(ISO)
 62
    18
420
        0
370
    50
100
AcDbSpline
210
0.0
220
0.0
230
1.0
 70
     8
 71
     3
 72
     8
 73
     4
 74
     0
 42
0.0000000001
 43
0.0000000001
 40
0.0
 40
0.0
 40
0.0
 40
0.0
 40
1.0
 40
1.0
 40
1.0
 40
1.0
 10
339.2813475360266
 20
125.4441454463601
 30
0.0
 10
339.2088317034036
 20
125.5697465528031
 30
0.0
 10
339.0748169181959
 20
125.6471200251141
 30
0.0
 10
338.9297852529612
 20
125.6471200251141
 30
0.0
  0
LINE
  5
2AE
330
70
100
AcDbEntity
  8
Visible Edges(ISO)
 62
    18
420
        0
370
    50
100
AcDbLine
 10
340.1557487041869
 20
123.9296381970669
 30
0.0
 11
339.2813475360266
 21
125.4441454463601
 31
0.0
  0
LINE
  5
2AF
330
70
100
AcDbEntity
  8
Visible Edges(ISO)
 62
    18
420
        0
370
    50
100
AcDbLine
 10
335.095957154333
 20
121.587628449748
 30
0.0
 11
339.5613978870745
 21
121.5876284499492
 31
0.0
  0
LINE
  5
2B0
330
70
100
AcDbEntity
  8
Visible Edges(ISO)
 62
    18
420
        0
370
    50
100
AcDbLine
 10
334.2840588392896
 20
119.9638318195518
 30
0.0
 11
334.2840588392896
 21
120.7757301346684
 31
0.0
  0
LINE
  5
2B1
330
70
100
AcDbEntity
  8
Visible Edges(ISO)
 62
    18
420
        0
370
    50
100
AcDbLine
 10
339.5613978872205
 20
119.1519335044722
 30
0.0
 11
335.0959571543695
 21
119.1519335044722
 31
0.0
  0
LINE
  5
2B2
330
70
100
AcDbEntity
  8
Visible Edges(ISO)
 62
    18
420
        0
370
    50
100
AcDbLine
 10
340.3732962026075
 20
111.5135941562987
 30
0.0
 11
340.3732962023004
 21
118.3400351894288
 31
0.0
  0
SPLINE
  5
2B3
330
70
100
AcDbEntity
  8
Visible Edges(ISO)
 62
    18
420
        0
370
    50
100
AcDbSpline
210
0.0
220
0.0
230
1.0
 70
     8
 71
     3
 72
     8
 73
     4
 74
     0
 42
0.0000000001
 43
0.0000000001
 40
0.0
 40
0.0
 40
0.0
 40
0.0
 40
1.0
 40
1.0
 40
1.0
 40
1.0
 10
340.3732962026075
 20
111.5135941563719
 30
0.0
 10
340.3732962026075
 20
110.6167960407081
 30
0.0
 10
341.1002947171033
 20
109.8897975262123
 30
0.0
 10
341.997092832767
 20
109.8897975262123
 30
0.0
  0
LINE
  5
2B4
330
70
100
AcDbEntity
  8
Visible Edges(ISO)
 62
    18
420
        0
370
    50
100
AcDbLine
 10
346.1485307994574
 20
109.8897975262123
 30
0.0
 11
341.997092832767
 21
109.8897975262123
 31
0.0
  0
SPLINE
  5
2B5
330
70
100
AcDbEntity
  8
Visible Edges(ISO)
 62
    18
420
        0
370
    50
100
AcDbSpline
210
0.0
220
0.0
230
1.0
 70
     8
 71
     3
 72
     8
 73
     4
 74
     0
 42
0.0000000001
 43
0.0000000001
 40
0.0
 40
0.0
 40
0.0
 40
0.0
 40
1.0
 40
1.0
 40
1.0
 40
1.0
 10
348.4922793537413
 20
106.4246567672105
 30
0.0
 10
348.4922793537413
 20
106.5671746884986
 30
0.0
 10
348.454764565456
 20
106.707181784416
 30
0.0
 10
348.3835056048129
 20
106.8306059247466
 30
0.0
  0
LINE
  5
2B6
330
70
100
AcDbEntity
  8
Visible Edges(ISO)
 62
    18
420
        0
370
    50
100
AcDbLine
 10
348.4922793536572
 20
79.68229515894498
 30
0.0
 11
348.4922793537413
 21
106.424656767207
 31
0.0
  0
SPLINE
  5
2B7
330
70
100
AcDbEntity
  8
Visible Edges(ISO)
 62
    18
420
        0
370
    50
100
AcDbSpline
210
0.0
220
0.0
230
1.0
 70
     8
 71
     3
 72
     8
 73
     4
 74
     0
 42
0.0000000001
 43
0.0000000001
 40
0.0
 40
0.0
 40
0.0
 40
0.0
 40
1.0
 40
1.0
 40
1.0
 40
1.0
 10
348.3835056047484
 20
79.27634600144607
 30
0.0
 10
348.454764565379
 20
79.3997701417683
 30
0.0
 10
348.4922793536572
 20
79.53977723767287
 30
0.0
 10
348.4922793536572
 20
79.68229515894754
 30
0.0
  0
LINE
  5
2B8
330
70
100
AcDbEntity
  8
Visible Edges(ISO)
 62
    18
420
        0
370
    50
100
AcDbLine
 10
344.6869532700566
 20
72.87372955698117
 30
0.0
 11
348.3835056047484
 21
79.27634600144607
 31
0.0
  0
SPLINE
  5
2B9
330
70
100
AcDbEntity
  8
Visible Edges(ISO)
 62
    18
420
        0
370
    50
100
AcDbSpline
210
0.0
220
0.0
230
1.0
 70
     8
 71
     3
 72
     8
 73
     4
 74
     0
 42
0.0000000001
 43
0.0000000001
 40
0.0
 40
0.0
 40
0.0
 40
0.0
 40
1.0
 40
1.0
 40
1.0
 40
1.0
 10
343.9838287039637
 20
72.4677803994027
 30
0.0
 10
344.2738920344342
 20
72.46778039943028
 30
0.0
 10
344.5419216048353
 20
72.62252734407922
 30
0.0
 10
344.6869532700566
 20
72.87372955698117
 30
0.0
  0
LINE
  5
2BA
330
70
100
AcDbEntity
  8
Visible Edges(ISO)
 62
    18
420
        0
370
    50
100
AcDbLine
 10
340.7789814042504
 20
72.46778040023497
 30
0.0
 11
343.9838287039637
 21
72.4677803994027
 31
0.0
  0
SPLINE
  5
2BB
330
70
100
AcDbEntity
  8
Visible Edges(ISO)
 62
    18
420
        0
370
    50
100
AcDbSpline
210
0.0
220
0.0
230
1.0
 70
     8
 71
     3
 72
    11
 73
     7
 74
     0
 42
0.0000000001
 43
0.0000000001
 40
0.0
 40
0.0
 40
0.0
 40
0.0
 40
1.0
 40
1.0
 40
1.0
 40
2.0
 40
2.0
 40
2.0
 40
2.0
 10
340.7789814042504
 20
72.46778040023497
 30
0.0
 10
340.1063828175026
 20
72.46778040040952
 30
0.0
 10
339.561133931489
 20
71.9225315146792
 30
0.0
 10
339.5611339313144
 20
71.24993292793141
 30
0.0
 10
339.5611339313144
 20
71.24993292777354
 30
0.0
 10
339.5611339313144
 20
71.24993292777354
 30
0.0
 10
339.5611339313144
 20
71.24993292761505
 30
0.0
  0
LINE
  5
2BC
330
70
100
AcDbEntity
  8
Visible Edges(ISO)
 62
    18
420
        0
370
    50
100
AcDbLine
 10
339.5611339320171
 20
70.43803459965748
 30
0.0
 11
339.5611339313144
 21
71.2499329276035
 31
0.0
  0
SPLINE
  5
2BD
330
70
100
AcDbEntity
  8
Visible Edges(ISO)
 62
    18
420
        0
370
    50
100
AcDbSpline
210
0.0
220
0.0
230
1.0
 70
     8
 71
     3
 72
     8
 73
     4
 74
     0
 42
0.0000000001
 43
0.0000000001
 40
0.0
 40
0.0
 40
0.0
 40
0.0
 40
1.0
 40
1.0
 40
1.0
 40
1.0
 10
339.5611339320171
 20
70.43803459964784
 30
0.0
 10
339.561123049473
 20
69.76813850871083
 30
0.0
 10
340.1021522137573
 20
69.22400679008662
 30
0.0
 10
340.7720374151492
 20
69.22018713991644
 30
0.0
  0
LINE
  5
2BE
330
70
100
AcDbEntity
  8
Visible Edges(ISO)
 62
    18
420
        0
370
    50
100
AcDbLine
 10
347.5765347020326
 20
69.22018713736378
 30
0.0
 11
340.7720374151492
 21
69.22018713991644
 31
0.0
  0
SPLINE
  5
2BF
330
70
100
AcDbEntity
  8
Visible Edges(ISO)
 62
    18
420
        0
370
    50
100
AcDbSpline
210
0.0
220
0.0
230
1.0
 70
     8
 71
     3
 72
     8
 73
     4
 74
     0
 42
0.0000000001
 43
0.0000000001
 40
0.0
 40
0.0
 40
0.0
 40
0.0
 40
1.0
 40
1.0
 40
1.0
 40
1.0
 10
347.5765347020326
 20
69.22018713736378
 30
0.0
 10
347.7215663673283
 20
69.22018713730922
 30
0.0
 10
347.8555811526116
 20
69.29756060963433
 30
0.0
 10
347.9280969852593
 20
69.42316171613343
 30
0.0
  0
LINE
  5
2C0
330
70
100
AcDbEntity
  8
Visible Edges(ISO)
 62
    18
420
        0
370
    50
100
AcDbLine
 10
348.232784276949
 20
69.95089558576061
 30
0.0
 11
347.9280969852593
 21
69.42316171613343
 31
0.0
  0
SPLINE
  5
2C1
330
70
100
AcDbEntity
  8
Visible Edges(ISO)
 62
    18
420
        0
370
    50
100
AcDbSpline
210
0.0
220
0.0
230
1.0
 70
     8
 71
     3
 72
    11
 73
     7
 74
     0
 42
0.0000000001
 43
0.0000000001
 40
0.0
 40
0.0
 40
0.0
 40
0.0
 40
1.0
 40
1.0
 40
1.0
 40
2.0
 40
2.0
 40
2.0
 40
2.0
 10
349.1417980056848
 20
69.70732609123739
 30
0.0
 10
349.1417980056848
 20
69.97636552593601
 30
0.0
 10
348.9236984513364
 20
70.19446508028448
 30
0.0
 10
348.6546590166377
 20
70.19446508028448
 30
0.0
 10
348.4806210183484
 20
70.19446508028448
 30
0.0
 10
348.3198032760935
 20
70.10161691350255
 30
0.0
 10
348.232784276949
 20
69.95089558576061
 30
0.0
  0
SPLINE
  5
2C2
330
70
100
AcDbEntity
  8
Visible Edges(ISO)
 62
    18
420
        0
370
    50
100
AcDbSpline
210
0.0
220
0.0
230
1.0
 70
     8
 71
     3
 72
    11
 73
     7
 74
     0
 42
0.0000000001
 43
0.0000000001
 40
0.0
 40
0.0
 40
0.0
 40
0.0
 40
1.0
 40
1.0
 40
1.0
 40
2.0
 40
2.0
 40
2.0
 40
2.0
 10
349.1417980056858
 20
69.70732609123739
 30
0.0
 10
349.1417980056858
 20
68.98988759870627
 30
0.0
 10
349.7233968172823
 20
68.40828878710972
 30
0.0
 10
350.4408353098134
 20
68.40828878710972
 30
0.0
 10
351.1582738023443
 20
68.40828878710972
 30
0.0
 10
351.7398726139411
 20
68.98988759870627
 30
0.0
 10
351.7398726139411
 20
69.70732609123739
 30
0.0
  0
LINE
  5
2C3
330
70
100
AcDbEntity
  8
Visible Edges(ISO)
 62
    18
420
        0
370
    50
100
AcDbLine
 10
351.7398726139385
 20
116.310497687516
 30
0.0
 11
351.7398726139385
 21
69.70732609077602
 31
0.0
  0
SPLINE
  5
2C4
330
70
100
AcDbEntity
  8
Visible Edges(ISO)
 62
    18
420
        0
370
    50
100
AcDbSpline
210
0.0
220
0.0
230
1.0
 70
     8
 71
     3
 72
     8
 73
     4
 74
     0
 42
0.0000000001
 43
0.0000000001
 40
0.0
 40
0.0
 40
0.0
 40
0.0
 40
1.0
 40
1.0
 40
1.0
 40
1.0
 10
351.7398726139385
 20
116.310497687516
 30
0.0
 10
351.7398726139385
 20
116.7588967453479
 30
0.0
 10
351.3763733566904
 20
117.122396002596
 30
0.0
 10
350.9279742988586
 20
117.122396002596
 30
0.0
  0
LINE
  5
2C5
330
70
100
AcDbEntity
  8
Visible Edges(ISO)
 62
    18
420
        0
370
    50
100
AcDbLine
 10
350.3664966895485
 20
117.122396002596
 30
0.0
 11
350.9279742988586
 21
117.122396002596
 31
0.0
  0
SPLINE
  5
2C6
330
70
100
AcDbEntity
  8
Visible Edges(ISO)
 62
    18
420
        0
370
    50
100
AcDbSpline
210
0.0
220
0.0
230
1.0
 70
     8
 71
     3
 72
     8
 73
     4
 74
     0
 42
0.0000000001
 43
0.0000000001
 40
0.0
 40
0.0
 40
0.0
 40
0.0
 40
1.0
 40
1.0
 40
1.0
 40
1.0
 10
350.3664966895485
 20
117.122396002596
 30
0.0
 10
350.0764333590665
 20
117.122396002596
 30
0.0
 10
349.8084037886416
 20
116.9676490579605
 30
0.0
 10
349.6633721234001
 20
116.7164468450567
 30
0.0
  0
LINE
  5
2C7
330
70
100
AcDbEntity
  8
Visible Edges(ISO)
 62
    18
420
        0
370
    50
100
AcDbLine
 10
349.3102654680119
 20
116.1048481774352
 30
0.0
 11
349.6633721234001
 21
116.7164468450567
 31
0.0
  0
SPLINE
  5
2C8
330
70
100
AcDbEntity
  8
Visible Edges(ISO)
 62
    18
420
        0
370
    50
100
AcDbSpline
210
0.0
220
0.0
230
1.0
 70
     8
 71
     3
 72
    11
 73
     7
 74
     0
 42
0.0000000001
 43
0.0000000001
 40
0.0
 40
0.0
 40
0.0
 40
0.0
 40
1.0
 40
1.0
 40
1.0
 40
2.0
 40
2.0
 40
2.0
 40
2.0
 10
346.7790170298727
 20
116.1048481774435
 30
0.0
 10
347.1825761819173
 20
115.4058632222334
 30
0.0
 10
348.0763647772993
 20
115.1663732898914
 30
0.0
 10
348.7753497325094
 20
115.5699324419362
 30
0.0
 10
348.9975131851087
 20
115.6981985710967
 30
0.0
 10
349.18199933885
 20
115.8826847248368
 30
0.0
 10
349.3102654680119
 20
116.1048481774352
 30
0.0
  0
LINE
  5
2C9
330
70
100
AcDbEntity
  8
Visible Edges(ISO)
 62
    18
420
        0
370
    50
100
AcDbLine
 10
343.7840500763852
 20
121.2922831096144
 30
0.0
 11
346.7790170298727
 21
116.1048481774435
 31
0.0
  0
LINE
  5
2CA
330
70
100
AcDbEntity
  8
Visible Edges(ISO)
 62
    18
420
        0
370
    50
100
AcDbLine
 10
343.6208894528169
 20
127.6837064586036
 30
0.0
 11
343.6208894530772
 21
121.9012068457161
 31
0.0
  0
SPLINE
  5
2CB
330
70
100
AcDbEntity
  8
Visible Edges(ISO)
 62
    18
420
        0
370
    50
100
AcDbSpline
210
0.0
220
0.0
230
1.0
 70
     8
 71
     3
 72
     8
 73
     4
 74
     0
 42
0.0000000001
 43
0.0000000001
 40
0.0
 40
0.0
 40
0.0
 40
0.0
 40
1.0
 40
1.0
 40
1.0
 40
1.0
 10
343.6208894529453
 20
127.6837064585491
 30
0.0
 10
343.6208894529453
 20
128.3563050452969
 30
0.0
 10
343.0756405670735
 20
128.9015539311687
 30
0.0
 10
342.4030419803254
 20
128.9015539311687
 30
0.0
  0
SPLINE
  5
2CC
330
70
100
AcDbEntity
  8
Visible Edges(ISO)
 62
    18
420
        0
370
    50
100
AcDbSpline
210
0.0
220
0.0
230
1.0
 70
     8
 71
     3
 72
     8
 73
     4
 74
     0
 42
0.0000000001
 43
0.0000000001
 40
0.0
 40
0.0
 40
0.0
 40
0.0
 40
1.0
 40
1.0
 40
1.0
 40
1.0
 10
309.7387077271633
 20
123.9296381970669
 30
0.0
 10
309.5961898058501
 20
123.6827899163891
 30
0.0
 10
309.5211602292648
 20
123.4027757245279
 30
0.0
 10
309.5211602292648
 20
123.1177398819237
 30
0.0
  0
SPLINE
  5
2CD
330
70
100
AcDbEntity
  8
Visible Edges(ISO)
 62
    18
420
        0
370
    50
100
AcDbSpline
210
0.0
220
0.0
230
1.0
 70
     8
 71
     3
 72
     8
 73
     4
 74
     0
 42
0.0000000001
 43
0.0000000001
 40
0.0
 40
0.0
 40
0.0
 40
0.0
 40
1.0
 40
1.0
 40
1.0
 40
1.0
 10
340.3732962020854
 20
123.1177398819237
 30
0.0
 10
340.3732962020854
 20
123.4027757245279
 30
0.0
 10
340.2982666255001
 20
123.6827899163891
 30
0.0
 10
340.1557487041869
 20
123.9296381970669
 30
0.0
  0
SPLINE
  5
2CE
330
70
100
AcDbEntity
  8
Visible Edges(ISO)
 62
    18
420
        0
370
    50
100
AcDbSpline
210
0.0
220
0.0
230
1.0
 70
     8
 71
     3
 72
     8
 73
     4
 74
     0
 42
0.0000000001
 43
0.0000000001
 40
0.0
 40
0.0
 40
0.0
 40
0.0
 40
1.0
 40
1.0
 40
1.0
 40
1.0
 10
339.5613978870745
 20
121.5876284499492
 30
0.0
 10
340.0097969448919
 20
121.5876284499694
 30
0.0
 10
340.3732962021178
 20
121.9511277072114
 30
0.0
 10
340.3732962021178
 20
122.3995267650288
 30
0.0
  0
SPLINE
  5
2CF
330
70
100
AcDbEntity
  8
Visible Edges(ISO)
 62
    18
420
        0
370
    50
100
AcDbSpline
210
0.0
220
0.0
230
1.0
 70
     8
 71
     3
 72
     8
 73
     4
 74
     0
 42
0.0000000001
 43
0.0000000001
 40
0.0
 40
0.0
 40
0.0
 40
0.0
 40
1.0
 40
1.0
 40
1.0
 40
1.0
 10
335.095957154333
 20
121.587628449748
 30
0.0
 10
334.6475580965152
 20
121.5876284497278
 30
0.0
 10
334.2840588392896
 20
121.2241291924858
 30
0.0
 10
334.2840588392896
 20
120.7757301346684
 30
0.0
  0
SPLINE
  5
2D0
330
70
100
AcDbEntity
  8
Visible Edges(ISO)
 62
    18
420
        0
370
    50
100
AcDbSpline
210
0.0
220
0.0
230
1.0
 70
     8
 71
     3
 72
     8
 73
     4
 74
     0
 42
0.0000000001
 43
0.0000000001
 40
0.0
 40
0.0
 40
0.0
 40
0.0
 40
1.0
 40
1.0
 40
1.0
 40
1.0
 10
334.2840588392896
 20
119.9638318195518
 30
0.0
 10
334.2840588392896
 20
119.51543276172
 30
0.0
 10
334.6475580965377
 20
119.1519335044722
 30
0.0
 10
335.0959571543695
 20
119.1519335044722
 30
0.0
  0
SPLINE
  5
2D1
330
70
100
AcDbEntity
  8
Visible Edges(ISO)
 62
    18
420
        0
370
    50
100
AcDbSpline
210
0.0
220
0.0
230
1.0
 70
     8
 71
     3
 72
     8
 73
     4
 74
     0
 42
0.0000000001
 43
0.0000000001
 40
0.0
 40
0.0
 40
0.0
 40
0.0
 40
1.0
 40
1.0
 40
1.0
 40
1.0
 10
340.3732962023004
 20
118.3400351893922
 30
0.0
 10
340.3732962023004
 20
118.7884342472241
 30
0.0
 10
340.0097969450523
 20
119.1519335044722
 30
0.0
 10
339.5613978872205
 20
119.1519335044722
 30
0.0
  0
SPLINE
  5
2D2
330
70
100
AcDbEntity
  8
Visible Edges(ISO)
 62
    18
420
        0
370
    50
100
AcDbSpline
210
0.0
220
0.0
230
1.0
 70
     8
 71
     3
 72
     8
 73
     4
 74
     0
 42
0.0000000001
 43
0.0000000001
 40
0.0
 40
0.0
 40
0.0
 40
0.0
 40
1.0
 40
1.0
 40
1.0
 40
1.0
 10
310.3330585441298
 20
119.1519335044722
 30
0.0
 10
309.8846594862976
 20
119.1519335044722
 30
0.0
 10
309.5211602290498
 20
118.7884342472241
 30
0.0
 10
309.5211602290498
 20
118.3400351893922
 30
0.0
  0
SPLINE
  5
2D3
330
70
100
AcDbEntity
  8
Visible Edges(ISO)
 62
    18
420
        0
370
    50
100
AcDbSpline
210
0.0
220
0.0
230
1.0
 70
     8
 71
     3
 72
     8
 73
     4
 74
     0
 42
0.0000000001
 43
0.0000000001
 40
0.0
 40
0.0
 40
0.0
 40
0.0
 40
1.0
 40
1.0
 40
1.0
 40
1.0
 10
314.7984992769806
 20
119.1519335044722
 30
0.0
 10
315.2468983348125
 20
119.1519335044722
 30
0.0
 10
315.6103975920605
 20
119.51543276172
 30
0.0
 10
315.6103975920605
 20
119.9638318195518
 30
0.0
  0
SPLINE
  5
2D4
330
70
100
AcDbEntity
  8
Visible Edges(ISO)
 62
    18
420
        0
370
    50
100
AcDbSpline
210
0.0
220
0.0
230
1.0
 70
     8
 71
     3
 72
     8
 73
     4
 74
     0
 42
0.0000000001
 43
0.0000000001
 40
0.0
 40
0.0
 40
0.0
 40
0.0
 40
1.0
 40
1.0
 40
1.0
 40
1.0
 10
315.6103975920605
 20
120.7757301346684
 30
0.0
 10
315.6103975920605
 20
121.2241291924858
 30
0.0
 10
315.246898334835
 20
121.5876284497278
 30
0.0
 10
314.7984992770172
 20
121.587628449748
 30
0.0
  0
SPLINE
  5
2D5
330
70
100
AcDbEntity
  8
Visible Edges(ISO)
 62
    18
420
        0
370
    50
100
AcDbSpline
210
0.0
220
0.0
230
1.0
 70
     8
 71
     3
 72
     8
 73
     4
 74
     0
 42
0.0000000001
 43
0.0000000001
 40
0.0
 40
0.0
 40
0.0
 40
0.0
 40
1.0
 40
1.0
 40
1.0
 40
1.0
 10
309.5211602292324
 20
122.3995267650288
 30
0.0
 10
309.5211602292324
 20
121.9511277072114
 30
0.0
 10
309.884659486458
 20
121.5876284499694
 30
0.0
 10
310.3330585442757
 20
121.5876284499492
 30
0.0
  0
SPLINE
  5
2D6
330
70
100
AcDbEntity
  8
Visible Edges(ISO)
 62
    18
420
        0
370
    50
100
AcDbSpline
210
0.0
220
0.0
230
1.0
 70
     8
 71
     3
 72
     8
 73
     4
 74
     0
 42
0.0000000001
 43
0.0000000001
 40
0.0
 40
0.0
 40
0.0
 40
0.0
 40
1.0
 40
1.0
 40
1.0
 40
1.0
 10
343.6208894530772
 20
121.901206845771
 30
0.0
 10
343.6208894530772
 20
121.6874299638965
 30
0.0
 10
343.6771616354749
 20
121.477419320075
 30
0.0
 10
343.7840500763852
 20
121.2922831096144
 30
0.0
  0
SPLINE
  5
2D7
330
70
100
AcDbEntity
  8
Visible Edges(ISO)
 62
    18
420
        0
370
    50
100
AcDbSpline
210
0.0
220
0.0
230
1.0
 70
     8
 71
     3
 72
     8
 73
     4
 74
     0
 42
0.0000000001
 43
0.0000000001
 40
0.0
 40
0.0
 40
0.0
 40
0.0
 40
1.0
 40
1.0
 40
1.0
 40
1.0
 10
306.110406354965
 20
121.2922831096144
 30
0.0
 10
306.2172947958753
 20
121.477419320075
 30
0.0
 10
306.2735669782731
 20
121.6874299638965
 30
0.0
 10
306.2735669782731
 20
121.901206845771
 30
0.0
  0
INSERT
  5
2DA
330
70
100
AcDbEntity
  8
Dimensions(ISO)
100
AcDbBlockReference
  2
Block_45
 10
0.0
 20
0.0
 30
0.0
  0
INSERT
  5
2E6
330
70
100
AcDbEntity
  8
Dimensions(ISO)
100
AcDbBlockReference
  2
Block_46
 10
0.0
 20
0.0
 30
0.0
  0
INSERT
  5
2F2
330
70
100
AcDbEntity
  8
Dimensions(ISO)
100
AcDbBlockReference
  2
Block_47
 10
0.0
 20
0.0
 30
0.0
  0
SPLINE
  5
2FE
330
70
100
AcDbEntity
  8
Hatch
100
AcDbSpline
210
0.0
220
0.0
230
1.0
 70
     9
 71
     3
 72
   119
 73
   115
 74
     0
 42
0.0000000001
 43
0.0000000001
 40
0.0
 40
0.0
 40
0.0
 40
0.0
 40
1.0
 40
1.0
 40
1.0
 40
2.0
 40
2.0
 40
2.0
 40
3.0
 40
3.0
 40
3.0
 40
4.0
 40
4.0
 40
4.0
 40
5.0
 40
5.0
 40
5.0
 40
6.0
 40
6.0
 40
6.0
 40
7.0
 40
7.0
 40
7.0
 40
8.0
 40
8.0
 40
8.0
 40
9.0
 40
9.0
 40
9.0
 40
10.0
 40
10.0
 40
10.0
 40
11.0
 40
11.0
 40
11.0
 40
12.0
 40
12.0
 40
12.0
 40
13.0
 40
13.0
 40
13.0
 40
14.0
 40
14.0
 40
14.0
 40
15.0
 40
15.0
 40
15.0
 40
16.0
 40
16.0
 40
16.0
 40
17.0
 40
17.0
 40
17.0
 40
18.0
 40
18.0
 40
18.0
 40
19.0
 40
19.0
 40
19.0
 40
20.0
 40
20.0
 40
20.0
 40
21.0
 40
21.0
 40
21.0
 40
22.0
 40
22.0
 40
22.0
 40
23.0
 40
23.0
 40
23.0
 40
24.0
 40
24.0
 40
24.0
 40
25.0
 40
25.0
 40
25.0
 40
26.0
 40
26.0
 40
26.0
 40
27.0
 40
27.0
 40
27.0
 40
28.0
 40
28.0
 40
28.0
 40
29.0
 40
29.0
 40
29.0
 40
30.0
 40
30.0
 40
30.0
 40
31.0
 40
31.0
 40
31.0
 40
32.0
 40
32.0
 40
32.0
 40
33.0
 40
33.0
 40
33.0
 40
34.0
 40
34.0
 40
34.0
 40
35.0
 40
35.0
 40
35.0
 40
36.0
 40
36.0
 40
36.0
 40
37.0
 40
37.0
 40
37.0
 40
38.0
 40
38.0
 40
38.0
 40
38.0
 10
292.3491913627975
 20
9.615528928055733
 30
0.0
 10
292.3491913627975
 20
9.767101380650027
 30
0.0
 10
292.2358369649666
 20
9.89472511870842
 30
0.0
 10
292.0853237238132
 20
9.912612897306132
 30
0.0
 10
292.0853237238132
 20
9.912612897306132
 30
0.0
 10
291.9016813859267
 20
9.912612897306132
 30
0.0
 10
291.9016813859267
 20
9.912612897306132
 30
0.0
 10
291.9016813859267
 20
9.912612897306132
 30
0.0
 10
291.9016813859267
 20
10.05252587388107
 30
0.0
 10
291.9016813859267
 20
10.05252587388107
 30
0.0
 10
291.9016813859267
 20
10.05252587388107
 30
0.0
 10
293.4377472494264
 20
10.05252587388107
 30
0.0
 10
293.4377472494264
 20
10.05252587388107
 30
0.0
 10
293.4377472494264
 20
10.05252587388107
 30
0.0
 10
293.4377472494264
 20
9.912612897306132
 30
0.0
 10
293.4377472494264
 20
9.912612897306132
 30
0.0
 10
293.4377472494264
 20
9.912612897306132
 30
0.0
 10
293.248476533668
 20
9.912612897306132
 30
0.0
 10
293.248476533668
 20
9.912612897306132
 30
0.0
 10
293.0650778608904
 20
9.916801042013879
 30
0.0
 10
292.913008699204
 20
9.771522204543925
 30
0.0
 10
292.9088205544965
 20
9.588123531765706
 30
0.0
 10
292.9087628390441
 20
9.585596174648509
 30
0.0
 10
292.9087339784972
 20
9.583068240985902
 30
0.0
 10
292.9087339784972
 20
9.580540224950315
 30
0.0
 10
292.9087339784972
 20
9.580540224950315
 30
0.0
 10
292.9087339784972
 20
8.232445585024612
 30
0.0
 10
292.9087339784972
 20
8.232445585024612
 30
0.0
 10
292.9087339784972
 20
8.232445585024612
 30
0.0
 10
295.3667518089885
 20
8.232445585023327
 30
0.0
 10
295.3667518089885
 20
8.232445585023327
 30
0.0
 10
295.3667518089885
 20
8.232445585023327
 30
0.0
 10
295.3667518089885
 20
9.562744155941281
 30
0.0
 10
295.3667518089885
 20
9.562744155941281
 30
0.0
 10
295.3667518089885
 20
9.755971326239857
 30
0.0
 10
295.2101102379216
 20
9.912612897306132
 30
0.0
 10
295.016883067623
 20
9.912612897306132
 30
0.0
 10
295.016883067623
 20
9.912612897306132
 30
0.0
 10
294.7350451614789
 20
9.912612897306132
 30
0.0
 10
294.7350451614789
 20
9.912612897306132
 30
0.0
 10
294.7350451614789
 20
9.912612897306132
 30
0.0
 10
294.7350451614789
 20
10.05252587388107
 30
0.0
 10
294.7350451614789
 20
10.05252587388107
 30
0.0
 10
294.7350451614789
 20
10.05252587388107
 30
0.0
 10
296.3800042335659
 20
10.05252587388107
 30
0.0
 10
296.3800042335659
 20
10.05252587388107
 30
0.0
 10
296.3800042335659
 20
10.05252587388107
 30
0.0
 10
296.3800042335659
 20
9.912612897306132
 30
0.0
 10
296.3800042335659
 20
9.912612897306132
 30
0.0
 10
296.3800042335659
 20
9.912612897306132
 30
0.0
 10
296.2828671770327
 20
9.912612897306132
 30
0.0
 10
296.2828671770327
 20
9.912612897306132
 30
0.0
 10
296.0769772197421
 20
9.926687823656514
 30
0.0
 10
295.8986604493834
 20
9.77119101772562
 30
0.0
 10
295.8845855230327
 20
9.565301060434698
 30
0.0
 10
295.8840056408212
 20
9.556818463741212
 30
0.0
 10
295.8837154463233
 20
9.548318546241157
 30
0.0
 10
295.8837154463233
 20
9.539816151870722
 30
0.0
 10
295.8837154463233
 20
9.539816151870722
 30
0.0
 10
295.8837154463227
 20
6.641539384396279
 30
0.0
 10
295.8837154463227
 20
6.641539384396279
 30
0.0
 10
295.8890391334269
 20
6.435154745226379
 30
0.0
 10
296.0578770127741
 20
6.270615873756789
 30
0.0
 10
296.2643303027203
 20
6.270615873756789
 30
0.0
 10
296.2643303027203
 20
6.270615873756789
 30
0.0
 10
296.446509014358
 20
6.270615873756789
 30
0.0
 10
296.446509014358
 20
6.270615873756789
 30
0.0
 10
296.446509014358
 20
6.270615873756789
 30
0.0
 10
296.446509014358
 20
6.117742634887131
 30
0.0
 10
296.446509014358
 20
6.117742634887131
 30
0.0
 10
296.446509014358
 20
6.117742634887131
 30
0.0
 10
294.6731794477728
 20
6.117742634887131
 30
0.0
 10
294.6731794477728
 20
6.117742634887131
 30
0.0
 10
294.6731794477728
 20
6.117742634887131
 30
0.0
 10
294.6731794477728
 20
6.270615873756789
 30
0.0
 10
294.6731794477728
 20
6.270615873756789
 30
0.0
 10
294.6731794477728
 20
6.270615873756789
 30
0.0
 10
295.026105951966
 20
6.270615873756789
 30
0.0
 10
295.026105951966
 20
6.270615873756789
 30
0.0
 10
295.1988890766838
 20
6.285733339583704
 30
0.0
 10
295.3392745070382
 20
6.416381613740139
 30
0.0
 10
295.3667518089885
 20
6.587634478936691
 30
0.0
 10
295.3667518089885
 20
6.587634478936691
 30
0.0
 10
295.3667518089885
 20
8.000489041057223
 30
0.0
 10
295.3667518089885
 20
8.000489041057223
 30
0.0
 10
295.3667518089885
 20
8.000489041057223
 30
0.0
 10
292.9087339784972
 20
8.000489041057223
 30
0.0
 10
292.9087339784972
 20
8.000489041057223
 30
0.0
 10
292.9087339784972
 20
8.000489041057223
 30
0.0
 10
292.9087339784966
 20
6.579835351011897
 30
0.0
 10
292.9087339784966
 20
6.579835351011897
 30
0.0
 10
292.9310371506197
 20
6.403128810648887
 30
0.0
 10
293.0813260877944
 20
6.270616369250477
 30
0.0
 10
293.2594345740999
 20
6.270616369250477
 30
0.0
 10
293.2594345740999
 20
6.270616369250477
 30
0.0
 10
293.4352006287119
 20
6.270616369250477
 30
0.0
 10
293.4352006287119
 20
6.270616369250477
 30
0.0
 10
293.4352006287119
 20
6.270616369250477
 30
0.0
 10
293.4352006287119
 20
6.117743130380819
 30
0.0
 10
293.4352006287119
 20
6.117743130380819
 30
0.0
 10
293.4352006287119
 20
6.117743130380819
 30
0.0
 10
291.8376752864003
 20
6.117743130380819
 30
0.0
 10
291.8376752864003
 20
6.117743130380819
 30
0.0
 10
291.8376752864003
 20
6.117743130380819
 30
0.0
 10
291.8376752864003
 20
6.270616369250477
 30
0.0
 10
291.8376752864003
 20
6.270616369250477
 30
0.0
 10
291.8376752864003
 20
6.270616369250477
 30
0.0
 10
292.0856797414104
 20
6.270616369250477
 30
0.0
 10
292.0856797414104
 20
6.270616369250477
 30
0.0
 10
292.2280077813433
 20
6.270616369250477
 30
0.0
 10
292.3446434153961
 20
6.38358271779845
 30
0.0
 10
292.3491913627972
 20
6.525838076662146
 30
0.0
 10
292.3491913627972
 20
6.525838076662146
 30
0.0
 10
292.3491913627975
 20
9.615528928055733
 30
0.0
 10
292.3491913627975
 20
9.615528928055733
 30
0.0
  0
HATCH
  5
2FF
330
70
100
AcDbEntity
  8
Hatch
 62
   179
420
  1973831
440
 33554687
100
AcDbHatch
 10
0.0
 20
0.0
 30
0.0
210
0.0
220
0.0
230
1.0
  2
SOLID
 70
     1
 71
     1
 91
        1
 92
        1
 93
        1
 72
     4
 94
        3
 73
     0
 74
     0
 95
      119
 96
      115
 40
0.0
 40
0.0
 40
0.0
 40
0.0
 40
1.0
 40
1.0
 40
1.0
 40
2.0
 40
2.0
 40
2.0
 40
3.0
 40
3.0
 40
3.0
 40
4.0
 40
4.0
 40
4.0
 40
5.0
 40
5.0
 40
5.0
 40
6.0
 40
6.0
 40
6.0
 40
7.0
 40
7.0
 40
7.0
 40
8.0
 40
8.0
 40
8.0
 40
9.0
 40
9.0
 40
9.0
 40
10.0
 40
10.0
 40
10.0
 40
11.0
 40
11.0
 40
11.0
 40
12.0
 40
12.0
 40
12.0
 40
13.0
 40
13.0
 40
13.0
 40
14.0
 40
14.0
 40
14.0
 40
15.0
 40
15.0
 40
15.0
 40
16.0
 40
16.0
 40
16.0
 40
17.0
 40
17.0
 40
17.0
 40
18.0
 40
18.0
 40
18.0
 40
19.0
 40
19.0
 40
19.0
 40
20.0
 40
20.0
 40
20.0
 40
21.0
 40
21.0
 40
21.0
 40
22.0
 40
22.0
 40
22.0
 40
23.0
 40
23.0
 40
23.0
 40
24.0
 40
24.0
 40
24.0
 40
25.0
 40
25.0
 40
25.0
 40
26.0
 40
26.0
 40
26.0
 40
27.0
 40
27.0
 40
27.0
 40
28.0
 40
28.0
 40
28.0
 40
29.0
 40
29.0
 40
29.0
 40
30.0
 40
30.0
 40
30.0
 40
31.0
 40
31.0
 40
31.0
 40
32.0
 40
32.0
 40
32.0
 40
33.0
 40
33.0
 40
33.0
 40
34.0
 40
34.0
 40
34.0
 40
35.0
 40
35.0
 40
35.0
 40
36.0
 40
36.0
 40
36.0
 40
37.0
 40
37.0
 40
37.0
 40
38.0
 40
38.0
 40
38.0
 40
38.0
 10
292.3491913627975
 20
9.615528928055733
 10
292.3491913627975
 20
9.767101380650027
 10
292.2358369649666
 20
9.89472511870842
 10
292.0853237238132
 20
9.912612897306132
 10
292.0853237238132
 20
9.912612897306132
 10
291.9016813859267
 20
9.912612897306132
 10
291.9016813859267
 20
9.912612897306132
 10
291.9016813859267
 20
9.912612897306132
 10
291.9016813859267
 20
10.05252587388107
 10
291.9016813859267
 20
10.05252587388107
 10
291.9016813859267
 20
10.05252587388107
 10
293.4377472494264
 20
10.05252587388107
 10
293.4377472494264
 20
10.05252587388107
 10
293.4377472494264
 20
10.05252587388107
 10
293.4377472494264
 20
9.912612897306132
 10
293.4377472494264
 20
9.912612897306132
 10
293.4377472494264
 20
9.912612897306132
 10
293.248476533668
 20
9.912612897306132
 10
293.248476533668
 20
9.912612897306132
 10
293.0650778608904
 20
9.916801042013879
 10
292.913008699204
 20
9.771522204543925
 10
292.9088205544965
 20
9.588123531765706
 10
292.9087628390441
 20
9.585596174648509
 10
292.9087339784972
 20
9.583068240985902
 10
292.9087339784972
 20
9.580540224950315
 10
292.9087339784972
 20
9.580540224950315
 10
292.9087339784972
 20
8.232445585024612
 10
292.9087339784972
 20
8.232445585024612
 10
292.9087339784972
 20
8.232445585024612
 10
295.3667518089885
 20
8.232445585023327
 10
295.3667518089885
 20
8.232445585023327
 10
295.3667518089885
 20
8.232445585023327
 10
295.3667518089885
 20
9.562744155941281
 10
295.3667518089885
 20
9.562744155941281
 10
295.3667518089885
 20
9.755971326239857
 10
295.2101102379216
 20
9.912612897306132
 10
295.016883067623
 20
9.912612897306132
 10
295.016883067623
 20
9.912612897306132
 10
294.7350451614789
 20
9.912612897306132
 10
294.7350451614789
 20
9.912612897306132
 10
294.7350451614789
 20
9.912612897306132
 10
294.7350451614789
 20
10.05252587388107
 10
294.7350451614789
 20
10.05252587388107
 10
294.7350451614789
 20
10.05252587388107
 10
296.3800042335659
 20
10.05252587388107
 10
296.3800042335659
 20
10.05252587388107
 10
296.3800042335659
 20
10.05252587388107
 10
296.3800042335659
 20
9.912612897306132
 10
296.3800042335659
 20
9.912612897306132
 10
296.3800042335659
 20
9.912612897306132
 10
296.2828671770327
 20
9.912612897306132
 10
296.2828671770327
 20
9.912612897306132
 10
296.0769772197421
 20
9.926687823656514
 10
295.8986604493834
 20
9.77119101772562
 10
295.8845855230327
 20
9.565301060434698
 10
295.8840056408212
 20
9.556818463741212
 10
295.8837154463233
 20
9.548318546241157
 10
295.8837154463233
 20
9.539816151870722
 10
295.8837154463233
 20
9.539816151870722
 10
295.8837154463227
 20
6.641539384396279
 10
295.8837154463227
 20
6.641539384396279
 10
295.8890391334269
 20
6.435154745226379
 10
296.0578770127741
 20
6.270615873756789
 10
296.2643303027203
 20
6.270615873756789
 10
296.2643303027203
 20
6.270615873756789
 10
296.446509014358
 20
6.270615873756789
 10
296.446509014358
 20
6.270615873756789
 10
296.446509014358
 20
6.270615873756789
 10
296.446509014358
 20
6.117742634887131
 10
296.446509014358
 20
6.117742634887131
 10
296.446509014358
 20
6.117742634887131
 10
294.6731794477728
 20
6.117742634887131
 10
294.6731794477728
 20
6.117742634887131
 10
294.6731794477728
 20
6.117742634887131
 10
294.6731794477728
 20
6.270615873756789
 10
294.6731794477728
 20
6.270615873756789
 10
294.6731794477728
 20
6.270615873756789
 10
295.026105951966
 20
6.270615873756789
 10
295.026105951966
 20
6.270615873756789
 10
295.1988890766838
 20
6.285733339583704
 10
295.3392745070382
 20
6.416381613740139
 10
295.3667518089885
 20
6.587634478936691
 10
295.3667518089885
 20
6.587634478936691
 10
295.3667518089885
 20
8.000489041057223
 10
295.3667518089885
 20
8.000489041057223
 10
295.3667518089885
 20
8.000489041057223
 10
292.9087339784972
 20
8.000489041057223
 10
292.9087339784972
 20
8.000489041057223
 10
292.9087339784972
 20
8.000489041057223
 10
292.9087339784966
 20
6.579835351011897
 10
292.9087339784966
 20
6.579835351011897
 10
292.9310371506197
 20
6.403128810648887
 10
293.0813260877944
 20
6.270616369250477
 10
293.2594345740999
 20
6.270616369250477
 10
293.2594345740999
 20
6.270616369250477
 10
293.4352006287119
 20
6.270616369250477
 10
293.4352006287119
 20
6.270616369250477
 10
293.4352006287119
 20
6.270616369250477
 10
293.4352006287119
 20
6.117743130380819
 10
293.4352006287119
 20
6.117743130380819
 10
293.4352006287119
 20
6.117743130380819
 10
291.8376752864003
 20
6.117743130380819
 10
291.8376752864003
 20
6.117743130380819
 10
291.8376752864003
 20
6.117743130380819
 10
291.8376752864003
 20
6.270616369250477
 10
291.8376752864003
 20
6.270616369250477
 10
291.8376752864003
 20
6.270616369250477
 10
292.0856797414104
 20
6.270616369250477
 10
292.0856797414104
 20
6.270616369250477
 10
292.2280077813433
 20
6.270616369250477
 10
292.3446434153961
 20
6.38358271779845
 10
292.3491913627972
 20
6.525838076662146
 10
292.3491913627972
 20
6.525838076662146
 10
292.3491913627975
 20
9.615528928055733
 10
292.3491913627975
 20
9.615528928055733
 97
        0
 97
        1
330
2FE
 75
     0
 76
     1
 98
        1
 10
0.0
 20
0.0
450
        0
451
        0
460
0.0
461
0.0
452
        0
462
0.0
453
        0
470

  0
SPLINE
  5
300
330
70
100
AcDbEntity
  8
Hatch
100
AcDbSpline
210
0.0
220
0.0
230
1.0
 70
     9
 71
     3
 72
   110
 73
   106
 74
     0
 42
0.0000000001
 43
0.0000000001
 40
0.0
 40
0.0
 40
0.0
 40
0.0
 40
1.0
 40
1.0
 40
1.0
 40
2.0
 40
2.0
 40
2.0
 40
3.0
 40
3.0
 40
3.0
 40
4.0
 40
4.0
 40
4.0
 40
5.0
 40
5.0
 40
5.0
 40
6.0
 40
6.0
 40
6.0
 40
7.0
 40
7.0
 40
7.0
 40
8.0
 40
8.0
 40
8.0
 40
9.0
 40
9.0
 40
9.0
 40
10.0
 40
10.0
 40
10.0
 40
11.0
 40
11.0
 40
11.0
 40
12.0
 40
12.0
 40
12.0
 40
13.0
 40
13.0
 40
13.0
 40
14.0
 40
14.0
 40
14.0
 40
15.0
 40
15.0
 40
15.0
 40
16.0
 40
16.0
 40
16.0
 40
17.0
 40
17.0
 40
17.0
 40
18.0
 40
18.0
 40
18.0
 40
19.0
 40
19.0
 40
19.0
 40
20.0
 40
20.0
 40
20.0
 40
21.0
 40
21.0
 40
21.0
 40
22.0
 40
22.0
 40
22.0
 40
23.0
 40
23.0
 40
23.0
 40
24.0
 40
24.0
 40
24.0
 40
25.0
 40
25.0
 40
25.0
 40
26.0
 40
26.0
 40
26.0
 40
27.0
 40
27.0
 40
27.0
 40
28.0
 40
28.0
 40
28.0
 40
29.0
 40
29.0
 40
29.0
 40
30.0
 40
30.0
 40
30.0
 40
31.0
 40
31.0
 40
31.0
 40
32.0
 40
32.0
 40
32.0
 40
33.0
 40
33.0
 40
33.0
 40
34.0
 40
34.0
 40
34.0
 40
35.0
 40
35.0
 40
35.0
 40
35.0
 10
297.7392051792627
 20
9.651600023561231
 30
0.0
 10
297.7392051792627
 20
9.651600023561231
 30
0.0
 10
297.7392051792627
 20
7.501543953785203
 30
0.0
 10
297.7392051792627
 20
7.501543953785203
 30
0.0
 10
297.7395200418879
 20
7.496976863082381
 30
0.0
 10
297.739677613126
 20
7.492400287968933
 30
0.0
 10
297.739677613126
 20
7.487822356563605
 30
0.0
 10
297.739677613126
 20
7.377639028172189
 30
0.0
 10
297.6503563772047
 20
7.288317792250288
 30
0.0
 10
297.5401730488134
 20
7.288317792250288
 30
0.0
 10
297.5401730488134
 20
7.288317792250288
 30
0.0
 10
297.1964476784507
 20
7.288317792250288
 30
0.0
 10
297.1964476784507
 20
7.288317792250288
 30
0.0
 10
297.1964476784507
 20
7.288317792250288
 30
0.0
 10
297.1964476784507
 20
7.167166564106602
 30
0.0
 10
297.1964476784507
 20
7.167166564106602
 30
0.0
 10
297.1964476784507
 20
7.167166564106602
 30
0.0
 10
299.6146261865323
 20
7.167166564106602
 30
0.0
 10
299.6146261865323
 20
7.167166564106602
 30
0.0
 10
299.6146261865323
 20
7.167166564106602
 30
0.0
 10
299.6727787759057
 20
7.869843687344346
 30
0.0
 10
299.6727787759057
 20
7.869843687344346
 30
0.0
 10
299.6727787759057
 20
7.869843687344346
 30
0.0
 10
299.5710117445032
 20
7.869843687344346
 30
0.0
 10
299.5710117445032
 20
7.869843687344346
 30
0.0
 10
299.5710117445032
 20
7.869843687344346
 30
0.0
 10
299.4740907622155
 20
7.550004445042935
 30
0.0
 10
299.4740907622155
 20
7.550004445042935
 30
0.0
 10
299.4107878093562
 20
7.427937548538715
 30
0.0
 10
299.2847411844321
 20
7.351316430886494
 30
0.0
 10
299.1472363079261
 20
7.351316430886494
 30
0.0
 10
299.1472363079261
 20
7.351316430886494
 30
0.0
 10
298.3212111621672
 20
7.351316430886494
 30
0.0
 10
298.3212111621672
 20
7.351316430886494
 30
0.0
 10
298.3151917418859
 20
7.351316430886494
 30
0.0
 10
298.3091758887322
 20
7.351609410994686
 30
0.0
 10
298.3031849548551
 20
7.352194331332642
 30
0.0
 10
298.2012166460572
 20
7.362149930728463
 30
0.0
 10
298.1266256072473
 20
7.452882185370865
 30
0.0
 10
298.1365812066428
 20
7.554850494168452
 30
0.0
 10
298.1365812066428
 20
7.554850494168452
 30
0.0
 10
298.1365812066428
 20
8.545586408849482
 30
0.0
 10
298.1365812066428
 20
8.545586408849482
 30
0.0
 10
298.1365812066428
 20
8.545586408849482
 30
0.0
 10
298.9860680600427
 20
8.545586408849482
 30
0.0
 10
298.9860680600427
 20
8.545586408849482
 30
0.0
 10
299.0975200958632
 20
8.533292790522018
 30
0.0
 10
299.1818778927262
 20
8.439118342414102
 30
0.0
 10
299.1818778927262
 20
8.326990338150153
 30
0.0
 10
299.1818778927262
 20
8.326990338150153
 30
0.0
 10
299.1818778927262
 20
8.182688308961809
 30
0.0
 10
299.1818778927262
 20
8.182688308961809
 30
0.0
 10
299.1818778927262
 20
8.182688308961809
 30
0.0
 10
299.2907473254096
 20
8.182688308961809
 30
0.0
 10
299.2907473254096
 20
8.182688308961809
 30
0.0
 10
299.2907473254096
 20
8.182688308961809
 30
0.0
 10
299.2907473254096
 20
9.064530691688934
 30
0.0
 10
299.2907473254096
 20
9.064530691688934
 30
0.0
 10
299.2907473254096
 20
9.064530691688934
 30
0.0
 10
299.1818778927262
 20
9.064530691688934
 30
0.0
 10
299.1818778927262
 20
9.064530691688934
 30
0.0
 10
299.1818778927262
 20
9.064530691688934
 30
0.0
 10
299.1818778927262
 20
8.952849095299754
 30
0.0
 10
299.1818778927262
 20
8.952849095299754
 30
0.0
 10
299.1819267015512
 20
8.950972579401032
 30
0.0
 10
299.1819511090583
 20
8.949095508184946
 30
0.0
 10
299.1819511090583
 20
8.94721835762534
 30
0.0
 10
299.1819511090583
 20
8.827618931289801
 30
0.0
 10
299.0849966175606
 20
8.730664439791452
 30
0.0
 10
298.9653971912254
 20
8.730664439791452
 30
0.0
 10
298.9653971912254
 20
8.730664439791452
 30
0.0
 10
298.1365812066428
 20
8.730664439791452
 30
0.0
 10
298.1365812066428
 20
8.730664439791452
 30
0.0
 10
298.1365812066428
 20
8.730664439791452
 30
0.0
 10
298.1365812066428
 20
9.808263337653592
 30
0.0
 10
298.1365812066428
 20
9.808263337653592
 30
0.0
 10
298.1365812066428
 20
9.808263337653592
 30
0.0
 10
299.0864068330639
 20
9.808263337653592
 30
0.0
 10
299.0864068330639
 20
9.808263337653592
 30
0.0
 10
299.0875898434447
 20
9.808441889885761
 30
0.0
 10
299.0887742568915
 20
9.808611018919616
 30
0.0
 10
299.0899599607517
 20
9.80877070866841
 30
0.0
 10
299.213313390256
 20
9.82538386042642
 30
0.0
 10
299.3267787230654
 20
9.738853768533054
 30
0.0
 10
299.3433918748232
 20
9.615500339028152
 30
0.0
 10
299.3433918748232
 20
9.615500339028152
 30
0.0
 10
299.4011999730894
 20
9.331629750231616
 30
0.0
 10
299.4011999730894
 20
9.331629750231616
 30
0.0
 10
299.4011999730894
 20
9.331629750231616
 30
0.0
 10
299.5143150351966
 20
9.343776333782072
 30
0.0
 10
299.5143150351966
 20
9.343776333782072
 30
0.0
 10
299.5143150351966
 20
9.343776333782072
 30
0.0
 10
299.4441927129916
 20
9.996790475424287
 30
0.0
 10
299.4441927129916
 20
9.996790475424287
 30
0.0
 10
299.4441927129916
 20
9.996790475424287
 30
0.0
 10
297.2835486600666
 20
9.996790475425569
 30
0.0
 10
297.2835486600666
 20
9.996790475425569
 30
0.0
 10
297.2835486600666
 20
9.996790475425569
 30
0.0
 10
297.2835486600666
 20
9.887224344273588
 30
0.0
 10
297.2835486600666
 20
9.887224344273588
 30
0.0
 10
297.2835486600666
 20
9.887224344273588
 30
0.0
 10
297.5730964979318
 20
9.887224344273588
 30
0.0
 10
297.5730964979318
 20
9.887224344273588
 30
0.0
 10
297.6749631284318
 20
9.85471492892668
 30
0.0
 10
297.7428149767672
 20
9.758467426719827
 30
0.0
 10
297.7392051792627
 20
9.651600023561231
 30
0.0
  0
HATCH
  5
301
330
70
100
AcDbEntity
  8
Hatch
 62
   179
420
  1973831
440
 33554687
100
AcDbHatch
 10
0.0
 20
0.0
 30
0.0
210
0.0
220
0.0
230
1.0
  2
SOLID
 70
     1
 71
     1
 91
        1
 92
        1
 93
        1
 72
     4
 94
        3
 73
     0
 74
     0
 95
      110
 96
      106
 40
0.0
 40
0.0
 40
0.0
 40
0.0
 40
1.0
 40
1.0
 40
1.0
 40
2.0
 40
2.0
 40
2.0
 40
3.0
 40
3.0
 40
3.0
 40
4.0
 40
4.0
 40
4.0
 40
5.0
 40
5.0
 40
5.0
 40
6.0
 40
6.0
 40
6.0
 40
7.0
 40
7.0
 40
7.0
 40
8.0
 40
8.0
 40
8.0
 40
9.0
 40
9.0
 40
9.0
 40
10.0
 40
10.0
 40
10.0
 40
11.0
 40
11.0
 40
11.0
 40
12.0
 40
12.0
 40
12.0
 40
13.0
 40
13.0
 40
13.0
 40
14.0
 40
14.0
 40
14.0
 40
15.0
 40
15.0
 40
15.0
 40
16.0
 40
16.0
 40
16.0
 40
17.0
 40
17.0
 40
17.0
 40
18.0
 40
18.0
 40
18.0
 40
19.0
 40
19.0
 40
19.0
 40
20.0
 40
20.0
 40
20.0
 40
21.0
 40
21.0
 40
21.0
 40
22.0
 40
22.0
 40
22.0
 40
23.0
 40
23.0
 40
23.0
 40
24.0
 40
24.0
 40
24.0
 40
25.0
 40
25.0
 40
25.0
 40
26.0
 40
26.0
 40
26.0
 40
27.0
 40
27.0
 40
27.0
 40
28.0
 40
28.0
 40
28.0
 40
29.0
 40
29.0
 40
29.0
 40
30.0
 40
30.0
 40
30.0
 40
31.0
 40
31.0
 40
31.0
 40
32.0
 40
32.0
 40
32.0
 40
33.0
 40
33.0
 40
33.0
 40
34.0
 40
34.0
 40
34.0
 40
35.0
 40
35.0
 40
35.0
 40
35.0
 10
297.7392051792627
 20
9.651600023561231
 10
297.7392051792627
 20
9.651600023561231
 10
297.7392051792627
 20
7.501543953785203
 10
297.7392051792627
 20
7.501543953785203
 10
297.7395200418879
 20
7.496976863082381
 10
297.739677613126
 20
7.492400287968933
 10
297.739677613126
 20
7.487822356563605
 10
297.739677613126
 20
7.377639028172189
 10
297.6503563772047
 20
7.288317792250288
 10
297.5401730488134
 20
7.288317792250288
 10
297.5401730488134
 20
7.288317792250288
 10
297.1964476784507
 20
7.288317792250288
 10
297.1964476784507
 20
7.288317792250288
 10
297.1964476784507
 20
7.288317792250288
 10
297.1964476784507
 20
7.167166564106602
 10
297.1964476784507
 20
7.167166564106602
 10
297.1964476784507
 20
7.167166564106602
 10
299.6146261865323
 20
7.167166564106602
 10
299.6146261865323
 20
7.167166564106602
 10
299.6146261865323
 20
7.167166564106602
 10
299.6727787759057
 20
7.869843687344346
 10
299.6727787759057
 20
7.869843687344346
 10
299.6727787759057
 20
7.869843687344346
 10
299.5710117445032
 20
7.869843687344346
 10
299.5710117445032
 20
7.869843687344346
 10
299.5710117445032
 20
7.869843687344346
 10
299.4740907622155
 20
7.550004445042935
 10
299.4740907622155
 20
7.550004445042935
 10
299.4107878093562
 20
7.427937548538715
 10
299.2847411844321
 20
7.351316430886494
 10
299.1472363079261
 20
7.351316430886494
 10
299.1472363079261
 20
7.351316430886494
 10
298.3212111621672
 20
7.351316430886494
 10
298.3212111621672
 20
7.351316430886494
 10
298.3151917418859
 20
7.351316430886494
 10
298.3091758887322
 20
7.351609410994686
 10
298.3031849548551
 20
7.352194331332642
 10
298.2012166460572
 20
7.362149930728463
 10
298.1266256072473
 20
7.452882185370865
 10
298.1365812066428
 20
7.554850494168452
 10
298.1365812066428
 20
7.554850494168452
 10
298.1365812066428
 20
8.545586408849482
 10
298.1365812066428
 20
8.545586408849482
 10
298.1365812066428
 20
8.545586408849482
 10
298.9860680600427
 20
8.545586408849482
 10
298.9860680600427
 20
8.545586408849482
 10
299.0975200958632
 20
8.533292790522018
 10
299.1818778927262
 20
8.439118342414102
 10
299.1818778927262
 20
8.326990338150153
 10
299.1818778927262
 20
8.326990338150153
 10
299.1818778927262
 20
8.182688308961809
 10
299.1818778927262
 20
8.182688308961809
 10
299.1818778927262
 20
8.182688308961809
 10
299.2907473254096
 20
8.182688308961809
 10
299.2907473254096
 20
8.182688308961809
 10
299.2907473254096
 20
8.182688308961809
 10
299.2907473254096
 20
9.064530691688934
 10
299.2907473254096
 20
9.064530691688934
 10
299.2907473254096
 20
9.064530691688934
 10
299.1818778927262
 20
9.064530691688934
 10
299.1818778927262
 20
9.064530691688934
 10
299.1818778927262
 20
9.064530691688934
 10
299.1818778927262
 20
8.952849095299754
 10
299.1818778927262
 20
8.952849095299754
 10
299.1819267015512
 20
8.950972579401032
 10
299.1819511090583
 20
8.949095508184946
 10
299.1819511090583
 20
8.94721835762534
 10
299.1819511090583
 20
8.827618931289801
 10
299.0849966175606
 20
8.730664439791452
 10
298.9653971912254
 20
8.730664439791452
 10
298.9653971912254
 20
8.730664439791452
 10
298.1365812066428
 20
8.730664439791452
 10
298.1365812066428
 20
8.730664439791452
 10
298.1365812066428
 20
8.730664439791452
 10
298.1365812066428
 20
9.808263337653592
 10
298.1365812066428
 20
9.808263337653592
 10
298.1365812066428
 20
9.808263337653592
 10
299.0864068330639
 20
9.808263337653592
 10
299.0864068330639
 20
9.808263337653592
 10
299.0875898434447
 20
9.808441889885761
 10
299.0887742568915
 20
9.808611018919616
 10
299.0899599607517
 20
9.80877070866841
 10
299.213313390256
 20
9.82538386042642
 10
299.3267787230654
 20
9.738853768533054
 10
299.3433918748232
 20
9.615500339028152
 10
299.3433918748232
 20
9.615500339028152
 10
299.4011999730894
 20
9.331629750231616
 10
299.4011999730894
 20
9.331629750231616
 10
299.4011999730894
 20
9.331629750231616
 10
299.5143150351966
 20
9.343776333782072
 10
299.5143150351966
 20
9.343776333782072
 10
299.5143150351966
 20
9.343776333782072
 10
299.4441927129916
 20
9.996790475424287
 10
299.4441927129916
 20
9.996790475424287
 10
299.4441927129916
 20
9.996790475424287
 10
297.2835486600666
 20
9.996790475425569
 10
297.2835486600666
 20
9.996790475425569
 10
297.2835486600666
 20
9.996790475425569
 10
297.2835486600666
 20
9.887224344273588
 10
297.2835486600666
 20
9.887224344273588
 10
297.2835486600666
 20
9.887224344273588
 10
297.5730964979318
 20
9.887224344273588
 10
297.5730964979318
 20
9.887224344273588
 10
297.6749631284318
 20
9.85471492892668
 10
297.7428149767672
 20
9.758467426719827
 10
297.7392051792627
 20
9.651600023561231
 97
        0
 97
        1
330
300
 75
     0
 76
     1
 98
        1
 10
0.0
 20
0.0
450
        0
451
        0
460
0.0
461
0.0
452
        0
462
0.0
453
        0
470

  0
SPLINE
  5
302
330
70
100
AcDbEntity
  8
Hatch
100
AcDbSpline
210
0.0
220
0.0
230
1.0
 70
     9
 71
     3
 72
    80
 73
    76
 74
     0
 42
0.0000000001
 43
0.0000000001
 40
0.0
 40
0.0
 40
0.0
 40
0.0
 40
1.0
 40
1.0
 40
1.0
 40
2.0
 40
2.0
 40
2.0
 40
3.0
 40
3.0
 40
3.0
 40
4.0
 40
4.0
 40
4.0
 40
5.0
 40
5.0
 40
5.0
 40
6.0
 40
6.0
 40
6.0
 40
7.0
 40
7.0
 40
7.0
 40
8.0
 40
8.0
 40
8.0
 40
9.0
 40
9.0
 40
9.0
 40
10.0
 40
10.0
 40
10.0
 40
11.0
 40
11.0
 40
11.0
 40
12.0
 40
12.0
 40
12.0
 40
13.0
 40
13.0
 40
13.0
 40
14.0
 40
14.0
 40
14.0
 40
15.0
 40
15.0
 40
15.0
 40
16.0
 40
16.0
 40
16.0
 40
17.0
 40
17.0
 40
17.0
 40
18.0
 40
18.0
 40
18.0
 40
19.0
 40
19.0
 40
19.0
 40
20.0
 40
20.0
 40
20.0
 40
21.0
 40
21.0
 40
21.0
 40
22.0
 40
22.0
 40
22.0
 40
23.0
 40
23.0
 40
23.0
 40
24.0
 40
24.0
 40
24.0
 40
25.0
 40
25.0
 40
25.0
 40
25.0
 10
300.589732588022
 20
7.281782080673994
 30
0.0
 10
300.589732588022
 20
7.281782080673994
 30
0.0
 10
300.3933790457804
 20
7.281782080673994
 30
0.0
 10
300.3933790457804
 20
7.281782080673994
 30
0.0
 10
300.3933790457804
 20
7.281782080673994
 30
0.0
 10
300.3933790457804
 20
7.167166564106602
 30
0.0
 10
300.3933790457804
 20
7.167166564106602
 30
0.0
 10
300.3933790457804
 20
7.167166564106602
 30
0.0
 10
301.4590281828489
 20
7.167166564106602
 30
0.0
 10
301.4590281828489
 20
7.167166564106602
 30
0.0
 10
301.4590281828489
 20
7.167166564106602
 30
0.0
 10
301.4590281828489
 20
7.281782080673994
 30
0.0
 10
301.4590281828489
 20
7.281782080673994
 30
0.0
 10
301.4590281828489
 20
7.281782080673994
 30
0.0
 10
301.2131275964585
 20
7.281782080673994
 30
0.0
 10
301.2131275964585
 20
7.281782080673994
 30
0.0
 10
301.1008751187501
 20
7.281782080673994
 30
0.0
 10
301.0080928331334
 20
7.369309136812157
 30
0.0
 10
301.0015550482589
 20
7.481371066657541
 30
0.0
 10
301.0015550482589
 20
7.481371066657541
 30
0.0
 10
301.0015550482589
 20
9.556229723731433
 30
0.0
 10
301.0015550482589
 20
9.556229723731433
 30
0.0
 10
301.0015550482589
 20
9.556229723731433
 30
0.0
 10
303.3277174944601
 20
7.128281050222205
 30
0.0
 10
303.3277174944601
 20
7.128281050222205
 30
0.0
 10
303.3277174944601
 20
7.128281050222205
 30
0.0
 10
303.4315095196189
 20
7.128281050222205
 30
0.0
 10
303.4315095196189
 20
7.128281050222205
 30
0.0
 10
303.4315095196189
 20
7.128281050222205
 30
0.0
 10
303.4315095196189
 20
9.692418346944442
 30
0.0
 10
303.4315095196189
 20
9.692418346944442
 30
0.0
 10
303.4315095196189
 20
9.794189915758265
 30
0.0
 10
303.5127456962971
 20
9.877353662528093
 30
0.0
 10
303.6144892872885
 20
9.879739854242341
 30
0.0
 10
303.6144892872885
 20
9.879739854242341
 30
0.0
 10
303.8528099794393
 20
9.879739854242341
 30
0.0
 10
303.8528099794393
 20
9.879739854242341
 30
0.0
 10
303.8528099794393
 20
9.879739854242341
 30
0.0
 10
303.8528099794393
 20
9.996790475421077
 30
0.0
 10
303.8528099794393
 20
9.996790475421077
 30
0.0
 10
303.8528099794393
 20
9.996790475421077
 30
0.0
 10
302.7668250801698
 20
9.996790475421077
 30
0.0
 10
302.7668250801698
 20
9.996790475421077
 30
0.0
 10
302.7668250801698
 20
9.996790475421077
 30
0.0
 10
302.7668250801698
 20
9.879739854242341
 30
0.0
 10
302.7668250801698
 20
9.879739854242341
 30
0.0
 10
302.7668250801698
 20
9.879739854242341
 30
0.0
 10
303.0537249739975
 20
9.879739854242341
 30
0.0
 10
303.0537249739975
 20
9.879739854242341
 30
0.0
 10
303.1612703208505
 20
9.858047249636054
 30
0.0
 10
303.2334000358278
 20
9.756456533397866
 30
0.0
 10
303.2184225853441
 20
9.647772373092353
 30
0.0
 10
303.2184225853441
 20
9.647772373092353
 30
0.0
 10
303.2184225853441
 20
7.806100102976858
 30
0.0
 10
303.2184225853441
 20
7.806100102976858
 30
0.0
 10
303.2184225853441
 20
7.806100102976858
 30
0.0
 10
301.1195719254284
 20
9.996790475421077
 30
0.0
 10
301.1195719254284
 20
9.996790475421077
 30
0.0
 10
301.1195719254284
 20
9.996790475421077
 30
0.0
 10
300.3966552789441
 20
9.996790475421077
 30
0.0
 10
300.3966552789441
 20
9.996790475421077
 30
0.0
 10
300.3966552789441
 20
9.996790475421077
 30
0.0
 10
300.3966552789441
 20
9.879739854242341
 30
0.0
 10
300.3966552789441
 20
9.879739854242341
 30
0.0
 10
300.3966552789441
 20
9.879739854242341
 30
0.0
 10
300.5274498691213
 20
9.879739854242341
 30
0.0
 10
300.5274498691213
 20
9.879739854242341
 30
0.0
 10
300.6144528378063
 20
9.871003363084023
 30
0.0
 10
300.6977844567959
 20
9.840197536194139
 30
0.0
 10
300.7695493449634
 20
9.790241118547209
 30
0.0
 10
300.7695493449634
 20
9.790241118547209
 30
0.0
 10
300.7695493449634
 20
7.445108045539067
 30
0.0
 10
300.7695493449634
 20
7.445108045539067
 30
0.0
 10
300.7606254079694
 20
7.352477211043408
 30
0.0
 10
300.6827922901004
 20
7.281782080673994
 30
0.0
 10
300.589732588022
 20
7.281782080673994
 30
0.0
  0
HATCH
  5
303
330
70
100
AcDbEntity
  8
Hatch
 62
   179
420
  1973831
440
 33554687
100
AcDbHatch
 10
0.0
 20
0.0
 30
0.0
210
0.0
220
0.0
230
1.0
  2
SOLID
 70
     1
 71
     1
 91
        1
 92
        1
 93
        1
 72
     4
 94
        3
 73
     0
 74
     0
 95
       80
 96
       76
 40
0.0
 40
0.0
 40
0.0
 40
0.0
 40
1.0
 40
1.0
 40
1.0
 40
2.0
 40
2.0
 40
2.0
 40
3.0
 40
3.0
 40
3.0
 40
4.0
 40
4.0
 40
4.0
 40
5.0
 40
5.0
 40
5.0
 40
6.0
 40
6.0
 40
6.0
 40
7.0
 40
7.0
 40
7.0
 40
8.0
 40
8.0
 40
8.0
 40
9.0
 40
9.0
 40
9.0
 40
10.0
 40
10.0
 40
10.0
 40
11.0
 40
11.0
 40
11.0
 40
12.0
 40
12.0
 40
12.0
 40
13.0
 40
13.0
 40
13.0
 40
14.0
 40
14.0
 40
14.0
 40
15.0
 40
15.0
 40
15.0
 40
16.0
 40
16.0
 40
16.0
 40
17.0
 40
17.0
 40
17.0
 40
18.0
 40
18.0
 40
18.0
 40
19.0
 40
19.0
 40
19.0
 40
20.0
 40
20.0
 40
20.0
 40
21.0
 40
21.0
 40
21.0
 40
22.0
 40
22.0
 40
22.0
 40
23.0
 40
23.0
 40
23.0
 40
24.0
 40
24.0
 40
24.0
 40
25.0
 40
25.0
 40
25.0
 40
25.0
 10
300.589732588022
 20
7.281782080673994
 10
300.589732588022
 20
7.281782080673994
 10
300.3933790457804
 20
7.281782080673994
 10
300.3933790457804
 20
7.281782080673994
 10
300.3933790457804
 20
7.281782080673994
 10
300.3933790457804
 20
7.167166564106602
 10
300.3933790457804
 20
7.167166564106602
 10
300.3933790457804
 20
7.167166564106602
 10
301.4590281828489
 20
7.167166564106602
 10
301.4590281828489
 20
7.167166564106602
 10
301.4590281828489
 20
7.167166564106602
 10
301.4590281828489
 20
7.281782080673994
 10
301.4590281828489
 20
7.281782080673994
 10
301.4590281828489
 20
7.281782080673994
 10
301.2131275964585
 20
7.281782080673994
 10
301.2131275964585
 20
7.281782080673994
 10
301.1008751187501
 20
7.281782080673994
 10
301.0080928331334
 20
7.369309136812157
 10
301.0015550482589
 20
7.481371066657541
 10
301.0015550482589
 20
7.481371066657541
 10
301.0015550482589
 20
9.556229723731433
 10
301.0015550482589
 20
9.556229723731433
 10
301.0015550482589
 20
9.556229723731433
 10
303.3277174944601
 20
7.128281050222205
 10
303.3277174944601
 20
7.128281050222205
 10
303.3277174944601
 20
7.128281050222205
 10
303.4315095196189
 20
7.128281050222205
 10
303.4315095196189
 20
7.128281050222205
 10
303.4315095196189
 20
7.128281050222205
 10
303.4315095196189
 20
9.692418346944442
 10
303.4315095196189
 20
9.692418346944442
 10
303.4315095196189
 20
9.794189915758265
 10
303.5127456962971
 20
9.877353662528093
 10
303.6144892872885
 20
9.879739854242341
 10
303.6144892872885
 20
9.879739854242341
 10
303.8528099794393
 20
9.879739854242341
 10
303.8528099794393
 20
9.879739854242341
 10
303.8528099794393
 20
9.879739854242341
 10
303.8528099794393
 20
9.996790475421077
 10
303.8528099794393
 20
9.996790475421077
 10
303.8528099794393
 20
9.996790475421077
 10
302.7668250801698
 20
9.996790475421077
 10
302.7668250801698
 20
9.996790475421077
 10
302.7668250801698
 20
9.996790475421077
 10
302.7668250801698
 20
9.879739854242341
 10
302.7668250801698
 20
9.879739854242341
 10
302.7668250801698
 20
9.879739854242341
 10
303.0537249739975
 20
9.879739854242341
 10
303.0537249739975
 20
9.879739854242341
 10
303.1612703208505
 20
9.858047249636054
 10
303.2334000358278
 20
9.756456533397866
 10
303.2184225853441
 20
9.647772373092353
 10
303.2184225853441
 20
9.647772373092353
 10
303.2184225853441
 20
7.806100102976858
 10
303.2184225853441
 20
7.806100102976858
 10
303.2184225853441
 20
7.806100102976858
 10
301.1195719254284
 20
9.996790475421077
 10
301.1195719254284
 20
9.996790475421077
 10
301.1195719254284
 20
9.996790475421077
 10
300.3966552789441
 20
9.996790475421077
 10
300.3966552789441
 20
9.996790475421077
 10
300.3966552789441
 20
9.996790475421077
 10
300.3966552789441
 20
9.879739854242341
 10
300.3966552789441
 20
9.879739854242341
 10
300.3966552789441
 20
9.879739854242341
 10
300.5274498691213
 20
9.879739854242341
 10
300.5274498691213
 20
9.879739854242341
 10
300.6144528378063
 20
9.871003363084023
 10
300.6977844567959
 20
9.840197536194139
 10
300.7695493449634
 20
9.790241118547209
 10
300.7695493449634
 20
9.790241118547209
 10
300.7695493449634
 20
7.445108045539067
 10
300.7695493449634
 20
7.445108045539067
 10
300.7606254079694
 20
7.352477211043408
 10
300.6827922901004
 20
7.281782080673994
 10
300.589732588022
 20
7.281782080673994
 97
        0
 97
        1
330
302
 75
     0
 76
     1
 98
        1
 10
0.0
 20
0.0
450
        0
451
        0
460
0.0
461
0.0
452
        0
462
0.0
453
        0
470

  0
SPLINE
  5
304
330
70
100
AcDbEntity
  8
Hatch
100
AcDbSpline
210
0.0
220
0.0
230
1.0
 70
     9
 71
     3
 72
    41
 73
    37
 74
     0
 42
0.0000000001
 43
0.0000000001
 40
0.0
 40
0.0
 40
0.0
 40
0.0
 40
1.0
 40
1.0
 40
1.0
 40
2.0
 40
2.0
 40
2.0
 40
3.0
 40
3.0
 40
3.0
 40
4.0
 40
4.0
 40
4.0
 40
5.0
 40
5.0
 40
5.0
 40
6.0
 40
6.0
 40
6.0
 40
7.0
 40
7.0
 40
7.0
 40
8.0
 40
8.0
 40
8.0
 40
9.0
 40
9.0
 40
9.0
 40
10.0
 40
10.0
 40
10.0
 40
11.0
 40
11.0
 40
11.0
 40
12.0
 40
12.0
 40
12.0
 40
12.0
 10
304.5880873697425
 20
7.28432718618557
 30
0.0
 10
304.7012989271268
 20
7.28432718618557
 30
0.0
 10
304.796720248034
 20
7.368785676226419
 30
0.0
 10
304.810468609026
 20
7.48115933548627
 30
0.0
 10
304.810468609026
 20
7.48115933548627
 30
0.0
 10
304.810468609026
 20
9.633849659373771
 30
0.0
 10
304.810468609026
 20
9.633849659373771
 30
0.0
 10
304.810468609026
 20
9.779693854169581
 30
0.0
 10
304.7003455488095
 20
9.90199607807424
 30
0.0
 10
304.5553000775579
 20
9.917238795195522
 30
0.0
 10
304.5553000775579
 20
9.917238795195522
 30
0.0
 10
304.372952146117
 20
9.917238795195522
 30
0.0
 10
304.372952146117
 20
9.917238795195522
 30
0.0
 10
304.372952146117
 20
9.917238795195522
 30
0.0
 10
304.372952146117
 20
9.999273133161556
 30
0.0
 10
304.372952146117
 20
9.999273133161556
 30
0.0
 10
304.372952146117
 20
9.999273133161556
 30
0.0
 10
305.8730085903763
 20
9.999273133161556
 30
0.0
 10
305.8730085903763
 20
9.999273133161556
 30
0.0
 10
305.9587592327478
 20
10.00986680169014
 30
0.0
 10
306.0452974952708
 20
10.01261594535058
 30
0.0
 10
306.1315476323192
 20
10.00748638990224
 30
0.0
 10
306.9148102130788
 20
9.960903404926133
 30
0.0
 10
307.5120070207424
 20
9.288180656056425
 30
0.0
 10
307.4654240357659
 20
8.504918075296874
 30
0.0
 10
307.4188410507898
 20
7.721655494538606
 30
0.0
 10
306.7461183019198
 20
7.124458686874706
 30
0.0
 10
305.9628557211608
 20
7.171041671850819
 30
0.0
 10
305.9628557211608
 20
7.171041671850819
 30
0.0
 10
304.3963905280585
 20
7.171041671852102
 30
0.0
 10
304.3963905280585
 20
7.171041671852102
 30
0.0
 10
304.3963905280585
 20
7.171041671852102
 30
0.0
 10
304.3963905280585
 20
7.28432718618557
 30
0.0
 10
304.3963905280585
 20
7.28432718618557
 30
0.0
 10
304.3963905280585
 20
7.28432718618557
 30
0.0
 10
304.5880873697425
 20
7.28432718618557
 30
0.0
 10
304.5880873697425
 20
7.28432718618557
 30
0.0
  0
SPLINE
  5
305
330
70
100
AcDbEntity
  8
Hatch
100
AcDbSpline
210
0.0
220
0.0
230
1.0
 70
     9
 71
     3
 72
    23
 73
    19
 74
     0
 42
0.0000000001
 43
0.0000000001
 40
0.0
 40
0.0
 40
0.0
 40
0.0
 40
1.0
 40
1.0
 40
1.0
 40
2.0
 40
2.0
 40
2.0
 40
3.0
 40
3.0
 40
3.0
 40
4.0
 40
4.0
 40
4.0
 40
5.0
 40
5.0
 40
5.0
 40
6.0
 40
6.0
 40
6.0
 40
6.0
 10
305.8730085903763
 20
9.917238795195522
 30
0.0
 10
305.8730085903763
 20
9.917238795195522
 30
0.0
 10
305.1796231246055
 20
9.917238795195522
 30
0.0
 10
305.1796231246055
 20
9.917238795195522
 30
0.0
 10
305.1796231246055
 20
9.917238795195522
 30
0.0
 10
305.1796231246055
 20
7.454003706001946
 30
0.0
 10
305.1796231246055
 20
7.454003706001946
 30
0.0
 10
305.1855615128663
 20
7.35863493901212
 30
0.0
 10
305.2646401501057
 20
7.28432718618557
 30
0.0
 10
305.3601936229487
 20
7.28432718618557
 30
0.0
 10
305.3601936229487
 20
7.28432718618557
 30
0.0
 10
305.962855721149
 20
7.284327186184929
 30
0.0
 10
305.962855721149
 20
7.284327186184929
 30
0.0
 10
306.6867925559375
 20
7.400615114937864
 30
0.0
 10
307.1793893224862
 20
8.081751866083525
 30
0.0
 10
307.0631013937333
 20
8.805688700872405
 30
0.0
 10
306.9669023855654
 20
9.404564321323894
 30
0.0
 10
306.4770489377289
 20
9.862088847655915
 30
0.0
 10
305.8730085903763
 20
9.917238795195522
 30
0.0
  0
HATCH
  5
306
330
70
100
AcDbEntity
  8
Hatch
 62
   179
420
  1973831
440
 33554687
100
AcDbHatch
 10
0.0
 20
0.0
 30
0.0
210
0.0
220
0.0
230
1.0
  2
SOLID
 70
     1
 71
     1
 91
        2
 92
        1
 93
        1
 72
     4
 94
        3
 73
     0
 74
     0
 95
       41
 96
       37
 40
0.0
 40
0.0
 40
0.0
 40
0.0
 40
1.0
 40
1.0
 40
1.0
 40
2.0
 40
2.0
 40
2.0
 40
3.0
 40
3.0
 40
3.0
 40
4.0
 40
4.0
 40
4.0
 40
5.0
 40
5.0
 40
5.0
 40
6.0
 40
6.0
 40
6.0
 40
7.0
 40
7.0
 40
7.0
 40
8.0
 40
8.0
 40
8.0
 40
9.0
 40
9.0
 40
9.0
 40
10.0
 40
10.0
 40
10.0
 40
11.0
 40
11.0
 40
11.0
 40
12.0
 40
12.0
 40
12.0
 40
12.0
 10
304.5880873697425
 20
7.28432718618557
 10
304.7012989271268
 20
7.28432718618557
 10
304.796720248034
 20
7.368785676226419
 10
304.810468609026
 20
7.48115933548627
 10
304.810468609026
 20
7.48115933548627
 10
304.810468609026
 20
9.633849659373771
 10
304.810468609026
 20
9.633849659373771
 10
304.810468609026
 20
9.779693854169581
 10
304.7003455488095
 20
9.90199607807424
 10
304.5553000775579
 20
9.917238795195522
 10
304.5553000775579
 20
9.917238795195522
 10
304.372952146117
 20
9.917238795195522
 10
304.372952146117
 20
9.917238795195522
 10
304.372952146117
 20
9.917238795195522
 10
304.372952146117
 20
9.999273133161556
 10
304.372952146117
 20
9.999273133161556
 10
304.372952146117
 20
9.999273133161556
 10
305.8730085903763
 20
9.999273133161556
 10
305.8730085903763
 20
9.999273133161556
 10
305.9587592327478
 20
10.00986680169014
 10
306.0452974952708
 20
10.01261594535058
 10
306.1315476323192
 20
10.00748638990224
 10
306.9148102130788
 20
9.960903404926133
 10
307.5120070207424
 20
9.288180656056425
 10
307.4654240357659
 20
8.504918075296874
 10
307.4188410507898
 20
7.721655494538606
 10
306.7461183019198
 20
7.124458686874706
 10
305.9628557211608
 20
7.171041671850819
 10
305.9628557211608
 20
7.171041671850819
 10
304.3963905280585
 20
7.171041671852102
 10
304.3963905280585
 20
7.171041671852102
 10
304.3963905280585
 20
7.171041671852102
 10
304.3963905280585
 20
7.28432718618557
 10
304.3963905280585
 20
7.28432718618557
 10
304.3963905280585
 20
7.28432718618557
 10
304.5880873697425
 20
7.28432718618557
 10
304.5880873697425
 20
7.28432718618557
 97
        0
 97
        1
330
304
 92
        1
 93
        2
 72
     4
 94
        3
 73
     0
 74
     0
 95
       23
 96
       19
 40
0.0
 40
0.0
 40
0.0
 40
0.0
 40
1.0
 40
1.0
 40
1.0
 40
2.0
 40
2.0
 40
2.0
 40
3.0
 40
3.0
 40
3.0
 40
4.0
 40
4.0
 40
4.0
 40
5.0
 40
5.0
 40
5.0
 40
6.0
 40
6.0
 40
6.0
 40
6.0
 10
305.8730085903763
 20
9.917238795195522
 10
305.8730085903763
 20
9.917238795195522
 10
305.1796231246055
 20
9.917238795195522
 10
305.1796231246055
 20
9.917238795195522
 10
305.1796231246055
 20
9.917238795195522
 10
305.1796231246055
 20
7.454003706001946
 10
305.1796231246055
 20
7.454003706001946
 10
305.1855615128663
 20
7.35863493901212
 10
305.2646401501057
 20
7.28432718618557
 10
305.3601936229487
 20
7.28432718618557
 10
305.3601936229487
 20
7.28432718618557
 10
305.962855721149
 20
7.284327186184929
 10
305.962855721149
 20
7.284327186184929
 10
306.6867925559375
 20
7.400615114937864
 10
307.1793893224862
 20
8.081751866083525
 10
307.0631013937333
 20
8.805688700872405
 10
306.9669023855654
 20
9.404564321323894
 10
306.4770489377289
 20
9.862088847655915
 10
305.8730085903763
 20
9.917238795195522
 97
        0
 72
     1
 10
305.8730085903763
 20
9.917238795195522
 11
305.8730085903763
 21
9.917238795195522
 97
        0
 75
     0
 76
     1
 98
        1
 10
0.0
 20
0.0
450
        0
451
        0
460
0.0
461
0.0
452
        0
462
0.0
453
        0
470

  0
SPLINE
  5
307
330
70
100
AcDbEntity
  8
Hatch
100
AcDbSpline
210
0.0
220
0.0
230
1.0
 70
     9
 71
     3
 72
   110
 73
   106
 74
     0
 42
0.0000000001
 43
0.0000000001
 40
0.0
 40
0.0
 40
0.0
 40
0.0
 40
1.0
 40
1.0
 40
1.0
 40
2.0
 40
2.0
 40
2.0
 40
3.0
 40
3.0
 40
3.0
 40
4.0
 40
4.0
 40
4.0
 40
5.0
 40
5.0
 40
5.0
 40
6.0
 40
6.0
 40
6.0
 40
7.0
 40
7.0
 40
7.0
 40
8.0
 40
8.0
 40
8.0
 40
9.0
 40
9.0
 40
9.0
 40
10.0
 40
10.0
 40
10.0
 40
11.0
 40
11.0
 40
11.0
 40
12.0
 40
12.0
 40
12.0
 40
13.0
 40
13.0
 40
13.0
 40
14.0
 40
14.0
 40
14.0
 40
15.0
 40
15.0
 40
15.0
 40
16.0
 40
16.0
 40
16.0
 40
17.0
 40
17.0
 40
17.0
 40
18.0
 40
18.0
 40
18.0
 40
19.0
 40
19.0
 40
19.0
 40
20.0
 40
20.0
 40
20.0
 40
21.0
 40
21.0
 40
21.0
 40
22.0
 40
22.0
 40
22.0
 40
23.0
 40
23.0
 40
23.0
 40
24.0
 40
24.0
 40
24.0
 40
25.0
 40
25.0
 40
25.0
 40
26.0
 40
26.0
 40
26.0
 40
27.0
 40
27.0
 40
27.0
 40
28.0
 40
28.0
 40
28.0
 40
29.0
 40
29.0
 40
29.0
 40
30.0
 40
30.0
 40
30.0
 40
31.0
 40
31.0
 40
31.0
 40
32.0
 40
32.0
 40
32.0
 40
33.0
 40
33.0
 40
33.0
 40
34.0
 40
34.0
 40
34.0
 40
35.0
 40
35.0
 40
35.0
 40
35.0
 10
308.4851942151954
 20
7.287367246521527
 30
0.0
 10
308.4851942151954
 20
7.287367246521527
 30
0.0
 10
308.1414688448331
 20
7.287367246521527
 30
0.0
 10
308.1414688448331
 20
7.287367246521527
 30
0.0
 10
308.1414688448331
 20
7.287367246521527
 30
0.0
 10
308.1414688448331
 20
7.166216018376558
 30
0.0
 10
308.1414688448331
 20
7.166216018376558
 30
0.0
 10
308.1414688448331
 20
7.166216018376558
 30
0.0
 10
310.5596473529147
 20
7.166216018376558
 30
0.0
 10
310.5596473529147
 20
7.166216018376558
 30
0.0
 10
310.5596473529147
 20
7.166216018376558
 30
0.0
 10
310.6177999422878
 20
7.868893141614301
 30
0.0
 10
310.6177999422878
 20
7.868893141614301
 30
0.0
 10
310.6177999422878
 20
7.868893141614301
 30
0.0
 10
310.5160329108852
 20
7.868893141614301
 30
0.0
 10
310.5160329108852
 20
7.868893141614301
 30
0.0
 10
310.5160329108852
 20
7.868893141614301
 30
0.0
 10
310.4191119285973
 20
7.54905389931289
 30
0.0
 10
310.4191119285973
 20
7.54905389931289
 30
0.0
 10
310.3558089757383
 20
7.426987002808671
 30
0.0
 10
310.2297623508142
 20
7.350365885155808
 30
0.0
 10
310.0922574743085
 20
7.350365885155808
 30
0.0
 10
310.0922574743085
 20
7.350365885155808
 30
0.0
 10
309.2662323285489
 20
7.350365885155808
 30
0.0
 10
309.2662323285489
 20
7.350365885155808
 30
0.0
 10
309.2602129082683
 20
7.350365885155808
 30
0.0
 10
309.2541970551143
 20
7.350658865264641
 30
0.0
 10
309.2482061212378
 20
7.351243785603239
 30
0.0
 10
309.1462378124398
 20
7.361199384998419
 30
0.0
 10
309.0716467736294
 20
7.451931639640822
 30
0.0
 10
309.0816023730253
 20
7.553899948438407
 30
0.0
 10
309.0816023730253
 20
7.553899948438407
 30
0.0
 10
309.0816023730253
 20
8.544635863119438
 30
0.0
 10
309.0816023730253
 20
8.544635863119438
 30
0.0
 10
309.0816023730253
 20
8.544635863119438
 30
0.0
 10
309.9310892264241
 20
8.544635863119438
 30
0.0
 10
309.9310892264241
 20
8.544635863119438
 30
0.0
 10
310.0425412622453
 20
8.532342244791975
 30
0.0
 10
310.1268990591082
 20
8.438167796683416
 30
0.0
 10
310.1268990591082
 20
8.326039792420109
 30
0.0
 10
310.1268990591082
 20
8.326039792420109
 30
0.0
 10
310.1268990591082
 20
8.181737763231764
 30
0.0
 10
310.1268990591082
 20
8.181737763231764
 30
0.0
 10
310.1268990591082
 20
8.181737763231764
 30
0.0
 10
310.2357684917948
 20
8.181737763232407
 30
0.0
 10
310.2357684917948
 20
8.181737763232407
 30
0.0
 10
310.2357684917948
 20
8.181737763232407
 30
0.0
 10
310.2357684917919
 20
9.063580145959532
 30
0.0
 10
310.2357684917919
 20
9.063580145959532
 30
0.0
 10
310.2357684917919
 20
9.063580145959532
 30
0.0
 10
310.1268990591079
 20
9.063580145958889
 30
0.0
 10
310.1268990591079
 20
9.063580145958889
 30
0.0
 10
310.1268990591079
 20
9.063580145958889
 30
0.0
 10
310.1268990591079
 20
8.951898549556233
 30
0.0
 10
310.1268990591079
 20
8.951898549556233
 30
0.0
 10
310.126947867933
 20
8.950022033662646
 30
0.0
 10
310.1269722754401
 20
8.94814496245041
 30
0.0
 10
310.1269722754401
 20
8.946267811895937
 30
0.0
 10
310.1269722754401
 20
8.82666838556104
 30
0.0
 10
310.0300177839427
 20
8.729713894062692
 30
0.0
 10
309.9104183576078
 20
8.729713894062692
 30
0.0
 10
309.9104183576078
 20
8.729713894062692
 30
0.0
 10
309.0816023730253
 20
8.729713894062692
 30
0.0
 10
309.0816023730253
 20
8.729713894062692
 30
0.0
 10
309.0816023730253
 20
8.729713894062692
 30
0.0
 10
309.0816023730253
 20
9.807312791924189
 30
0.0
 10
309.0816023730253
 20
9.807312791924189
 30
0.0
 10
309.0816023730253
 20
9.807312791924189
 30
0.0
 10
310.0314279994463
 20
9.807312791924189
 30
0.0
 10
310.0314279994463
 20
9.807312791924189
 30
0.0
 10
310.0326110098268
 20
9.807491344155716
 30
0.0
 10
310.0337954232736
 20
9.807660473190214
 30
0.0
 10
310.0349811271341
 20
9.807820162939007
 30
0.0
 10
310.1583345566384
 20
9.824433314696376
 30
0.0
 10
310.2717998894475
 20
9.737903222802367
 30
0.0
 10
310.2884130412055
 20
9.614549793298749
 30
0.0
 10
310.2884130412055
 20
9.614549793298749
 30
0.0
 10
310.3462211394718
 20
9.330679204501572
 30
0.0
 10
310.3462211394718
 20
9.330679204501572
 30
0.0
 10
310.3462211394718
 20
9.330679204501572
 30
0.0
 10
310.4593362015791
 20
9.342825788052028
 30
0.0
 10
310.4593362015791
 20
9.342825788052028
 30
0.0
 10
310.4593362015791
 20
9.342825788052028
 30
0.0
 10
310.3892138793739
 20
9.9958399297013
 30
0.0
 10
310.3892138793739
 20
9.9958399297013
 30
0.0
 10
310.3892138793739
 20
9.9958399297013
 30
0.0
 10
308.228569826449
 20
9.995839929694884
 30
0.0
 10
308.228569826449
 20
9.995839929694884
 30
0.0
 10
308.228569826449
 20
9.995839929694884
 30
0.0
 10
308.228569826449
 20
9.886273798544186
 30
0.0
 10
308.228569826449
 20
9.886273798544186
 30
0.0
 10
308.228569826449
 20
9.886273798544186
 30
0.0
 10
308.5181176643142
 20
9.88627379854547
 30
0.0
 10
308.5181176643142
 20
9.88627379854547
 30
0.0
 10
308.6199842948146
 20
9.853764383197278
 30
0.0
 10
308.6878361431498
 20
9.757516880990424
 30
0.0
 10
308.6842263456447
 20
9.65064947783247
 30
0.0
 10
308.6842263456447
 20
9.65064947783247
 30
0.0
 10
308.6842263456447
 20
7.500593408055159
 30
0.0
 10
308.6842263456447
 20
7.500593408055159
 30
0.0
 10
308.6845412082703
 20
7.49602631735362
 30
0.0
 10
308.6846987795078
 20
7.491449742239531
 30
0.0
 10
308.6846987795078
 20
7.486871810833561
 30
0.0
 10
308.6846987795078
 20
7.376688482442144
 30
0.0
 10
308.5953775435868
 20
7.287367246521527
 30
0.0
 10
308.4851942151954
 20
7.287367246521527
 30
0.0
  0
HATCH
  5
308
330
70
100
AcDbEntity
  8
Hatch
 62
   179
420
  1973831
440
 33554687
100
AcDbHatch
 10
0.0
 20
0.0
 30
0.0
210
0.0
220
0.0
230
1.0
  2
SOLID
 70
     1
 71
     1
 91
        1
 92
        1
 93
        1
 72
     4
 94
        3
 73
     0
 74
     0
 95
      110
 96
      106
 40
0.0
 40
0.0
 40
0.0
 40
0.0
 40
1.0
 40
1.0
 40
1.0
 40
2.0
 40
2.0
 40
2.0
 40
3.0
 40
3.0
 40
3.0
 40
4.0
 40
4.0
 40
4.0
 40
5.0
 40
5.0
 40
5.0
 40
6.0
 40
6.0
 40
6.0
 40
7.0
 40
7.0
 40
7.0
 40
8.0
 40
8.0
 40
8.0
 40
9.0
 40
9.0
 40
9.0
 40
10.0
 40
10.0
 40
10.0
 40
11.0
 40
11.0
 40
11.0
 40
12.0
 40
12.0
 40
12.0
 40
13.0
 40
13.0
 40
13.0
 40
14.0
 40
14.0
 40
14.0
 40
15.0
 40
15.0
 40
15.0
 40
16.0
 40
16.0
 40
16.0
 40
17.0
 40
17.0
 40
17.0
 40
18.0
 40
18.0
 40
18.0
 40
19.0
 40
19.0
 40
19.0
 40
20.0
 40
20.0
 40
20.0
 40
21.0
 40
21.0
 40
21.0
 40
22.0
 40
22.0
 40
22.0
 40
23.0
 40
23.0
 40
23.0
 40
24.0
 40
24.0
 40
24.0
 40
25.0
 40
25.0
 40
25.0
 40
26.0
 40
26.0
 40
26.0
 40
27.0
 40
27.0
 40
27.0
 40
28.0
 40
28.0
 40
28.0
 40
29.0
 40
29.0
 40
29.0
 40
30.0
 40
30.0
 40
30.0
 40
31.0
 40
31.0
 40
31.0
 40
32.0
 40
32.0
 40
32.0
 40
33.0
 40
33.0
 40
33.0
 40
34.0
 40
34.0
 40
34.0
 40
35.0
 40
35.0
 40
35.0
 40
35.0
 10
308.4851942151954
 20
7.287367246521527
 10
308.4851942151954
 20
7.287367246521527
 10
308.1414688448331
 20
7.287367246521527
 10
308.1414688448331
 20
7.287367246521527
 10
308.1414688448331
 20
7.287367246521527
 10
308.1414688448331
 20
7.166216018376558
 10
308.1414688448331
 20
7.166216018376558
 10
308.1414688448331
 20
7.166216018376558
 10
310.5596473529147
 20
7.166216018376558
 10
310.5596473529147
 20
7.166216018376558
 10
310.5596473529147
 20
7.166216018376558
 10
310.6177999422878
 20
7.868893141614301
 10
310.6177999422878
 20
7.868893141614301
 10
310.6177999422878
 20
7.868893141614301
 10
310.5160329108852
 20
7.868893141614301
 10
310.5160329108852
 20
7.868893141614301
 10
310.5160329108852
 20
7.868893141614301
 10
310.4191119285973
 20
7.54905389931289
 10
310.4191119285973
 20
7.54905389931289
 10
310.3558089757383
 20
7.426987002808671
 10
310.2297623508142
 20
7.350365885155808
 10
310.0922574743085
 20
7.350365885155808
 10
310.0922574743085
 20
7.350365885155808
 10
309.2662323285489
 20
7.350365885155808
 10
309.2662323285489
 20
7.350365885155808
 10
309.2602129082683
 20
7.350365885155808
 10
309.2541970551143
 20
7.350658865264641
 10
309.2482061212378
 20
7.351243785603239
 10
309.1462378124398
 20
7.361199384998419
 10
309.0716467736294
 20
7.451931639640822
 10
309.0816023730253
 20
7.553899948438407
 10
309.0816023730253
 20
7.553899948438407
 10
309.0816023730253
 20
8.544635863119438
 10
309.0816023730253
 20
8.544635863119438
 10
309.0816023730253
 20
8.544635863119438
 10
309.9310892264241
 20
8.544635863119438
 10
309.9310892264241
 20
8.544635863119438
 10
310.0425412622453
 20
8.532342244791975
 10
310.1268990591082
 20
8.438167796683416
 10
310.1268990591082
 20
8.326039792420109
 10
310.1268990591082
 20
8.326039792420109
 10
310.1268990591082
 20
8.181737763231764
 10
310.1268990591082
 20
8.181737763231764
 10
310.1268990591082
 20
8.181737763231764
 10
310.2357684917948
 20
8.181737763232407
 10
310.2357684917948
 20
8.181737763232407
 10
310.2357684917948
 20
8.181737763232407
 10
310.2357684917919
 20
9.063580145959532
 10
310.2357684917919
 20
9.063580145959532
 10
310.2357684917919
 20
9.063580145959532
 10
310.1268990591079
 20
9.063580145958889
 10
310.1268990591079
 20
9.063580145958889
 10
310.1268990591079
 20
9.063580145958889
 10
310.1268990591079
 20
8.951898549556233
 10
310.1268990591079
 20
8.951898549556233
 10
310.126947867933
 20
8.950022033662646
 10
310.1269722754401
 20
8.94814496245041
 10
310.1269722754401
 20
8.946267811895937
 10
310.1269722754401
 20
8.82666838556104
 10
310.0300177839427
 20
8.729713894062692
 10
309.9104183576078
 20
8.729713894062692
 10
309.9104183576078
 20
8.729713894062692
 10
309.0816023730253
 20
8.729713894062692
 10
309.0816023730253
 20
8.729713894062692
 10
309.0816023730253
 20
8.729713894062692
 10
309.0816023730253
 20
9.807312791924189
 10
309.0816023730253
 20
9.807312791924189
 10
309.0816023730253
 20
9.807312791924189
 10
310.0314279994463
 20
9.807312791924189
 10
310.0314279994463
 20
9.807312791924189
 10
310.0326110098268
 20
9.807491344155716
 10
310.0337954232736
 20
9.807660473190214
 10
310.0349811271341
 20
9.807820162939007
 10
310.1583345566384
 20
9.824433314696376
 10
310.2717998894475
 20
9.737903222802367
 10
310.2884130412055
 20
9.614549793298749
 10
310.2884130412055
 20
9.614549793298749
 10
310.3462211394718
 20
9.330679204501572
 10
310.3462211394718
 20
9.330679204501572
 10
310.3462211394718
 20
9.330679204501572
 10
310.4593362015791
 20
9.342825788052028
 10
310.4593362015791
 20
9.342825788052028
 10
310.4593362015791
 20
9.342825788052028
 10
310.3892138793739
 20
9.9958399297013
 10
310.3892138793739
 20
9.9958399297013
 10
310.3892138793739
 20
9.9958399297013
 10
308.228569826449
 20
9.995839929694884
 10
308.228569826449
 20
9.995839929694884
 10
308.228569826449
 20
9.995839929694884
 10
308.228569826449
 20
9.886273798544186
 10
308.228569826449
 20
9.886273798544186
 10
308.228569826449
 20
9.886273798544186
 10
308.5181176643142
 20
9.88627379854547
 10
308.5181176643142
 20
9.88627379854547
 10
308.6199842948146
 20
9.853764383197278
 10
308.6878361431498
 20
9.757516880990424
 10
308.6842263456447
 20
9.65064947783247
 10
308.6842263456447
 20
9.65064947783247
 10
308.6842263456447
 20
7.500593408055159
 10
308.6842263456447
 20
7.500593408055159
 10
308.6845412082703
 20
7.49602631735362
 10
308.6846987795078
 20
7.491449742239531
 10
308.6846987795078
 20
7.486871810833561
 10
308.6846987795078
 20
7.376688482442144
 10
308.5953775435868
 20
7.287367246521527
 10
308.4851942151954
 20
7.287367246521527
 97
        0
 97
        1
330
307
 75
     0
 76
     1
 98
        1
 10
0.0
 20
0.0
450
        0
451
        0
460
0.0
461
0.0
452
        0
462
0.0
453
        0
470

  0
SPLINE
  5
309
330
70
100
AcDbEntity
  8
Hatch
100
AcDbSpline
210
0.0
220
0.0
230
1.0
 70
    11
 71
     3
 72
    83
 73
    79
 74
     0
 42
0.0000000001
 43
0.0000000001
 40
0.0
 40
0.0
 40
0.0
 40
0.0
 40
1.0
 40
1.0
 40
1.0
 40
2.0
 40
2.0
 40
2.0
 40
3.0
 40
3.0
 40
3.0
 40
4.0
 40
4.0
 40
4.0
 40
5.0
 40
5.0
 40
5.0
 40
6.0
 40
6.0
 40
6.0
 40
7.0
 40
7.0
 40
7.0
 40
8.0
 40
8.0
 40
8.0
 40
9.0
 40
9.0
 40
9.0
 40
10.0
 40
10.0
 40
10.0
 40
11.0
 40
11.0
 40
11.0
 40
12.0
 40
12.0
 40
12.0
 40
13.0
 40
13.0
 40
13.0
 40
14.0
 40
14.0
 40
14.0
 40
15.0
 40
15.0
 40
15.0
 40
16.0
 40
16.0
 40
16.0
 40
17.0
 40
17.0
 40
17.0
 40
18.0
 40
18.0
 40
18.0
 40
19.0
 40
19.0
 40
19.0
 40
20.0
 40
20.0
 40
20.0
 40
21.0
 40
21.0
 40
21.0
 40
22.0
 40
22.0
 40
22.0
 40
23.0
 40
23.0
 40
23.0
 40
24.0
 40
24.0
 40
24.0
 40
25.0
 40
25.0
 40
25.0
 40
26.0
 40
26.0
 40
26.0
 40
26.0
 10
311.2903257214814
 20
7.165545123857115
 30
0.0
 10
311.2903257214814
 20
7.165545123857115
 30
0.0
 10
312.5555967637093
 20
7.165545123857115
 30
0.0
 10
312.5555967637093
 20
7.165545123857115
 30
0.0
 10
312.5555967637093
 20
7.165545123857115
 30
0.0
 10
312.5555967637093
 20
7.286047130755402
 30
0.0
 10
312.5555967637093
 20
7.286047130755402
 30
0.0
 10
312.5555967637093
 20
7.286047130755402
 30
0.0
 10
312.2882227914513
 20
7.286047130755402
 30
0.0
 10
312.2882227914513
 20
7.286047130755402
 30
0.0
 10
312.2120010331049
 20
7.301942197143087
 30
0.0
 10
312.1481114678462
 20
7.353597431718008
 30
0.0
 10
312.116606512127
 20
7.424800292236809
 30
0.0
 10
312.116606512127
 20
7.424800292236809
 30
0.0
 10
312.116606512127
 20
8.352925025282511
 30
0.0
 10
312.116606512127
 20
8.352925025282511
 30
0.0
 10
312.116606512127
 20
8.352925025282511
 30
0.0
 10
312.6349828871555
 20
8.352925025282511
 30
0.0
 10
312.6349828871555
 20
8.352925025282511
 30
0.0
 10
312.8631791131168
 20
8.200138435144518
 30
0.0
 10
313.0687933930901
 20
8.016068911162825
 30
0.0
 10
313.2458048062582
 20
7.80610648767439
 30
0.0
 10
313.3665791660492
 20
7.664116234127361
 30
0.0
 10
313.5009625799686
 20
7.534289219062305
 30
0.0
 10
313.6470327537896
 20
7.418482559472028
 30
0.0
 10
313.8054232060517
 20
7.269073695669596
 30
0.0
 10
314.0032908711037
 20
7.168153157390558
 30
0.0
 10
314.2172317098312
 20
7.127657954276647
 30
0.0
 10
314.2172317098312
 20
7.127657954276647
 30
0.0
 10
314.7694445421349
 20
7.127657954276647
 30
0.0
 10
314.7694445421349
 20
7.127657954276647
 30
0.0
 10
314.7694445421349
 20
7.127657954276647
 30
0.0
 10
314.7694445421349
 20
7.21459061811134
 30
0.0
 10
314.7694445421349
 20
7.21459061811134
 30
0.0
 10
314.6100283674575
 20
7.21459061811134
 30
0.0
 10
314.4537120760343
 20
7.258639392616173
 30
0.0
 10
314.3177509477035
 20
7.341874531419482
 30
0.0
 10
314.1714426640606
 20
7.415035751897806
 30
0.0
 10
314.0411501470588
 20
7.51657141768854
 30
0.0
 10
313.9344590167073
 20
7.64057013037804
 30
0.0
 10
313.8257959648492
 20
7.766860652402384
 30
0.0
 10
313.7094618153358
 20
7.88634239072148
 30
0.0
 10
313.5861165619574
 20
7.998337494459479
 30
0.0
 10
313.4210014880185
 20
8.173609694896043
 30
0.0
 10
313.2442185308125
 20
8.337511250336635
 30
0.0
 10
313.0569784676362
 20
8.488919607534494
 30
0.0
 10
313.4591682102491
 20
8.581508212794961
 30
0.0
 10
313.710149521438
 20
8.98260531327457
 30
0.0
 10
313.6175609161775
 20
9.384795055887241
 30
0.0
 10
313.6080577760946
 20
9.426075140551946
 30
0.0
 10
313.5950618761432
 20
9.46647244517165
 30
0.0
 10
313.5787136458108
 20
9.505550449551554
 30
0.0
 10
313.39274685676
 20
9.874779152098767
 30
0.0
 10
312.9852629902411
 20
10.07680246581943
 30
0.0
 10
312.5788011025727
 20
10.00128945178837
 30
0.0
 10
312.5788011025727
 20
10.00128945178837
 30
0.0
 10
311.2807226783418
 20
10.00128945178837
 30
0.0
 10
311.2807226783418
 20
10.00128945178837
 30
0.0
 10
311.2807226783418
 20
10.00128945178837
 30
0.0
 10
311.2807226783418
 20
9.912784098979116
 30
0.0
 10
311.2807226783418
 20
9.912784098979116
 30
0.0
 10
311.2807226783418
 20
9.912784098979116
 30
0.0
 10
311.439078622264
 20
9.912784098979116
 30
0.0
 10
311.439078622264
 20
9.912784098979116
 30
0.0
 10
311.5728667647887
 20
9.901228807522365
 30
0.0
 10
311.684800930676
 20
9.806508906270893
 30
0.0
 10
311.7183324501469
 20
9.676476490917291
 30
0.0
 10
311.7183324501469
 20
9.676476490917291
 30
0.0
 10
311.7183324501469
 20
7.508930291946096
 30
0.0
 10
311.7183324501469
 20
7.508930291946096
 30
0.0
 10
311.7126963806276
 20
7.402056587202185
 30
0.0
 10
311.6376999436882
 20
7.31149927874174
 30
0.0
 10
311.5337483097028
 20
7.286047130755402
 30
0.0
 10
311.5337483097028
 20
7.286047130755402
 30
0.0
 10
311.2903257214814
 20
7.286047130755402
 30
0.0
 10
311.2903257214814
 20
7.286047130755402
 30
0.0
 10
311.2903257214814
 20
7.286047130755402
 30
0.0
 10
311.2903257214814
 20
7.165545123857115
 30
0.0
 10
311.2903257214814
 20
7.165545123857115
 30
0.0
  0
SPLINE
  5
30A
330
70
100
AcDbEntity
  8
Hatch
100
AcDbSpline
210
0.0
220
0.0
230
1.0
 70
    11
 71
     3
 72
    20
 73
    16
 74
     0
 42
0.0000000001
 43
0.0000000001
 40
0.0
 40
0.0
 40
0.0
 40
0.0
 40
1.0
 40
1.0
 40
1.0
 40
2.0
 40
2.0
 40
2.0
 40
3.0
 40
3.0
 40
3.0
 40
4.0
 40
4.0
 40
4.0
 40
5.0
 40
5.0
 40
5.0
 40
5.0
 10
312.116606512127
 20
9.912784098979116
 30
0.0
 10
312.116606512127
 20
9.912784098979116
 30
0.0
 10
312.116606512127
 20
8.453269836565949
 30
0.0
 10
312.116606512127
 20
8.453269836565949
 30
0.0
 10
312.116606512127
 20
8.453269836565949
 30
0.0
 10
312.6349828871555
 20
8.453269836565949
 30
0.0
 10
312.6349828871555
 20
8.453269836565949
 30
0.0
 10
313.0354905729391
 20
8.534406778243583
 30
0.0
 10
313.2943917152169
 20
8.924856894679324
 30
0.0
 10
313.2132547735387
 20
9.325364580461652
 30
0.0
 10
313.1500769791517
 20
9.63722243089886
 30
0.0
 10
312.8945928009547
 20
9.873766720597004
 30
0.0
 10
312.5788011025727
 20
9.912784098979116
 30
0.0
 10
312.5788011025727
 20
9.912784098979116
 30
0.0
 10
312.116606512127
 20
9.912784098979116
 30
0.0
 10
312.116606512127
 20
9.912784098979116
 30
0.0
  0
HATCH
  5
30B
330
70
100
AcDbEntity
  8
Hatch
 62
   179
420
  1973831
440
 33554687
100
AcDbHatch
 10
0.0
 20
0.0
 30
0.0
210
0.0
220
0.0
230
1.0
  2
SOLID
 70
     1
 71
     1
 91
        2
 92
        1
 93
        1
 72
     4
 94
        3
 73
     0
 74
     0
 95
       83
 96
       79
 40
0.0
 40
0.0
 40
0.0
 40
0.0
 40
1.0
 40
1.0
 40
1.0
 40
2.0
 40
2.0
 40
2.0
 40
3.0
 40
3.0
 40
3.0
 40
4.0
 40
4.0
 40
4.0
 40
5.0
 40
5.0
 40
5.0
 40
6.0
 40
6.0
 40
6.0
 40
7.0
 40
7.0
 40
7.0
 40
8.0
 40
8.0
 40
8.0
 40
9.0
 40
9.0
 40
9.0
 40
10.0
 40
10.0
 40
10.0
 40
11.0
 40
11.0
 40
11.0
 40
12.0
 40
12.0
 40
12.0
 40
13.0
 40
13.0
 40
13.0
 40
14.0
 40
14.0
 40
14.0
 40
15.0
 40
15.0
 40
15.0
 40
16.0
 40
16.0
 40
16.0
 40
17.0
 40
17.0
 40
17.0
 40
18.0
 40
18.0
 40
18.0
 40
19.0
 40
19.0
 40
19.0
 40
20.0
 40
20.0
 40
20.0
 40
21.0
 40
21.0
 40
21.0
 40
22.0
 40
22.0
 40
22.0
 40
23.0
 40
23.0
 40
23.0
 40
24.0
 40
24.0
 40
24.0
 40
25.0
 40
25.0
 40
25.0
 40
26.0
 40
26.0
 40
26.0
 40
26.0
 10
311.2903257214814
 20
7.165545123857115
 10
311.2903257214814
 20
7.165545123857115
 10
312.5555967637093
 20
7.165545123857115
 10
312.5555967637093
 20
7.165545123857115
 10
312.5555967637093
 20
7.165545123857115
 10
312.5555967637093
 20
7.286047130755402
 10
312.5555967637093
 20
7.286047130755402
 10
312.5555967637093
 20
7.286047130755402
 10
312.2882227914513
 20
7.286047130755402
 10
312.2882227914513
 20
7.286047130755402
 10
312.2120010331049
 20
7.301942197143087
 10
312.1481114678462
 20
7.353597431718008
 10
312.116606512127
 20
7.424800292236809
 10
312.116606512127
 20
7.424800292236809
 10
312.116606512127
 20
8.352925025282511
 10
312.116606512127
 20
8.352925025282511
 10
312.116606512127
 20
8.352925025282511
 10
312.6349828871555
 20
8.352925025282511
 10
312.6349828871555
 20
8.352925025282511
 10
312.8631791131168
 20
8.200138435144518
 10
313.0687933930901
 20
8.016068911162825
 10
313.2458048062582
 20
7.80610648767439
 10
313.3665791660492
 20
7.664116234127361
 10
313.5009625799686
 20
7.534289219062305
 10
313.6470327537896
 20
7.418482559472028
 10
313.8054232060517
 20
7.269073695669596
 10
314.0032908711037
 20
7.168153157390558
 10
314.2172317098312
 20
7.127657954276647
 10
314.2172317098312
 20
7.127657954276647
 10
314.7694445421349
 20
7.127657954276647
 10
314.7694445421349
 20
7.127657954276647
 10
314.7694445421349
 20
7.127657954276647
 10
314.7694445421349
 20
7.21459061811134
 10
314.7694445421349
 20
7.21459061811134
 10
314.6100283674575
 20
7.21459061811134
 10
314.4537120760343
 20
7.258639392616173
 10
314.3177509477035
 20
7.341874531419482
 10
314.1714426640606
 20
7.415035751897806
 10
314.0411501470588
 20
7.51657141768854
 10
313.9344590167073
 20
7.64057013037804
 10
313.8257959648492
 20
7.766860652402384
 10
313.7094618153358
 20
7.88634239072148
 10
313.5861165619574
 20
7.998337494459479
 10
313.4210014880185
 20
8.173609694896043
 10
313.2442185308125
 20
8.337511250336635
 10
313.0569784676362
 20
8.488919607534494
 10
313.4591682102491
 20
8.581508212794961
 10
313.710149521438
 20
8.98260531327457
 10
313.6175609161775
 20
9.384795055887241
 10
313.6080577760946
 20
9.426075140551946
 10
313.5950618761432
 20
9.46647244517165
 10
313.5787136458108
 20
9.505550449551554
 10
313.39274685676
 20
9.874779152098767
 10
312.9852629902411
 20
10.07680246581943
 10
312.5788011025727
 20
10.00128945178837
 10
312.5788011025727
 20
10.00128945178837
 10
311.2807226783418
 20
10.00128945178837
 10
311.2807226783418
 20
10.00128945178837
 10
311.2807226783418
 20
10.00128945178837
 10
311.2807226783418
 20
9.912784098979116
 10
311.2807226783418
 20
9.912784098979116
 10
311.2807226783418
 20
9.912784098979116
 10
311.439078622264
 20
9.912784098979116
 10
311.439078622264
 20
9.912784098979116
 10
311.5728667647887
 20
9.901228807522365
 10
311.684800930676
 20
9.806508906270893
 10
311.7183324501469
 20
9.676476490917291
 10
311.7183324501469
 20
9.676476490917291
 10
311.7183324501469
 20
7.508930291946096
 10
311.7183324501469
 20
7.508930291946096
 10
311.7126963806276
 20
7.402056587202185
 10
311.6376999436882
 20
7.31149927874174
 10
311.5337483097028
 20
7.286047130755402
 10
311.5337483097028
 20
7.286047130755402
 10
311.2903257214814
 20
7.286047130755402
 10
311.2903257214814
 20
7.286047130755402
 10
311.2903257214814
 20
7.286047130755402
 10
311.2903257214814
 20
7.165545123857115
 10
311.2903257214814
 20
7.165545123857115
 97
        0
 97
        1
330
309
 92
        1
 93
        2
 72
     4
 94
        3
 73
     0
 74
     0
 95
       20
 96
       16
 40
0.0
 40
0.0
 40
0.0
 40
0.0
 40
1.0
 40
1.0
 40
1.0
 40
2.0
 40
2.0
 40
2.0
 40
3.0
 40
3.0
 40
3.0
 40
4.0
 40
4.0
 40
4.0
 40
5.0
 40
5.0
 40
5.0
 40
5.0
 10
312.116606512127
 20
9.912784098979116
 10
312.116606512127
 20
9.912784098979116
 10
312.116606512127
 20
8.453269836565949
 10
312.116606512127
 20
8.453269836565949
 10
312.116606512127
 20
8.453269836565949
 10
312.6349828871555
 20
8.453269836565949
 10
312.6349828871555
 20
8.453269836565949
 10
313.0354905729391
 20
8.534406778243583
 10
313.2943917152169
 20
8.924856894679324
 10
313.2132547735387
 20
9.325364580461652
 10
313.1500769791517
 20
9.63722243089886
 10
312.8945928009547
 20
9.873766720597004
 10
312.5788011025727
 20
9.912784098979116
 10
312.5788011025727
 20
9.912784098979116
 10
312.116606512127
 20
9.912784098979116
 10
312.116606512127
 20
9.912784098979116
 97
        0
 72
     1
 10
312.116606512127
 20
9.912784098979116
 11
312.116606512127
 21
9.912784098979116
 97
        0
 75
     0
 76
     1
 98
        1
 10
0.0
 20
0.0
450
        0
451
        0
460
0.0
461
0.0
452
        0
462
0.0
453
        0
470

  0
SPLINE
  5
30C
330
70
100
AcDbEntity
  8
Hatch
100
AcDbSpline
210
0.0
220
0.0
230
1.0
 70
     9
 71
     3
 72
    86
 73
    82
 74
     0
 42
0.0000000001
 43
0.0000000001
 40
0.0
 40
0.0
 40
0.0
 40
0.0
 40
1.0
 40
1.0
 40
1.0
 40
2.0
 40
2.0
 40
2.0
 40
3.0
 40
3.0
 40
3.0
 40
4.0
 40
4.0
 40
4.0
 40
5.0
 40
5.0
 40
5.0
 40
6.0
 40
6.0
 40
6.0
 40
7.0
 40
7.0
 40
7.0
 40
8.0
 40
8.0
 40
8.0
 40
9.0
 40
9.0
 40
9.0
 40
10.0
 40
10.0
 40
10.0
 40
11.0
 40
11.0
 40
11.0
 40
12.0
 40
12.0
 40
12.0
 40
13.0
 40
13.0
 40
13.0
 40
14.0
 40
14.0
 40
14.0
 40
15.0
 40
15.0
 40
15.0
 40
16.0
 40
16.0
 40
16.0
 40
17.0
 40
17.0
 40
17.0
 40
18.0
 40
18.0
 40
18.0
 40
19.0
 40
19.0
 40
19.0
 40
20.0
 40
20.0
 40
20.0
 40
21.0
 40
21.0
 40
21.0
 40
22.0
 40
22.0
 40
22.0
 40
23.0
 40
23.0
 40
23.0
 40
24.0
 40
24.0
 40
24.0
 40
25.0
 40
25.0
 40
25.0
 40
26.0
 40
26.0
 40
26.0
 40
27.0
 40
27.0
 40
27.0
 40
27.0
 10
315.9881646056935
 20
9.130951807716648
 30
0.0
 10
316.2628761710248
 20
8.900690253991017
 30
0.0
 10
316.5575811386473
 20
8.695394002877776
 30
0.0
 10
316.8687755515051
 20
8.517503967582523
 30
0.0
 10
317.0594074656525
 20
8.393562987596261
 30
0.0
 10
317.1836485758875
 20
8.189952302022964
 30
0.0
 10
317.2066760244512
 20
7.963740830554519
 30
0.0
 10
317.2073515380301
 20
7.957104883878781
 30
0.0
 10
317.2079399469809
 20
7.950460358910605
 30
0.0
 10
317.2084410993471
 20
7.943808971598785
 30
0.0
 10
317.2400806829902
 20
7.52388253912091
 30
0.0
 10
316.9253119994142
 20
7.157815954922865
 30
0.0
 10
316.505385566936
 20
7.126176371279774
 30
0.0
 10
316.2419209396166
 20
7.107819374388651
 30
0.0
 10
315.9773728774508
 20
7.139885806006651
 30
0.0
 10
315.7259237389519
 20
7.220656592382264
 30
0.0
 10
315.6852735506884
 20
7.239353417064007
 30
0.0
 10
315.6383760059321
 20
7.238808011707781
 30
0.0
 10
315.5981716309871
 20
7.21917087102016
 30
0.0
 10
315.5981716309871
 20
7.21917087102016
 30
0.0
 10
315.58063735683
 20
7.161307766166205
 30
0.0
 10
315.58063735683
 20
7.161307766166205
 30
0.0
 10
315.58063735683
 20
7.161307766166205
 30
0.0
 10
315.5091717175838
 20
7.161307766166205
 30
0.0
 10
315.5091717175838
 20
7.161307766166205
 30
0.0
 10
315.5091717175838
 20
7.161307766166205
 30
0.0
 10
315.3917271541293
 20
7.886760479888879
 30
0.0
 10
315.3917271541293
 20
7.886760479888879
 30
0.0
 10
315.3917271541293
 20
7.886760479888879
 30
0.0
 10
315.4903723893542
 20
7.886760479888879
 30
0.0
 10
315.4903723893542
 20
7.886760479888879
 30
0.0
 10
315.552649789369
 20
7.534633416434514
 30
0.0
 10
315.8426173558262
 20
7.267576460716806
 30
0.0
 10
316.1986693708867
 20
7.234426710483168
 30
0.0
 10
316.4701643434855
 20
7.209149531446269
 30
0.0
 10
316.728973549738
 20
7.354507201547603
 30
0.0
 10
316.8486759463862
 20
7.599496573077582
 30
0.0
 10
316.898852094043
 20
7.879557331496654
 30
0.0
 10
316.7618204029791
 20
8.159851597480791
 30
0.0
 10
316.5099911025162
 20
8.292266391323968
 30
0.0
 10
316.1986273235279
 20
8.455985110826176
 30
0.0
 10
315.9109710660005
 20
8.661281328452352
 30
0.0
 10
315.6549274051756
 20
8.902513303391016
 30
0.0
 10
315.5713335575336
 20
8.973257637265058
 30
0.0
 10
315.507071992094
 20
9.064069741855128
 30
0.0
 10
315.4681665102251
 20
9.166437000387773
 30
0.0
 10
315.3412676378366
 20
9.500330556082065
 30
0.0
 10
315.5090699833628
 20
9.87387662498634
 30
0.0
 10
315.8429635390571
 20
10.00077549737455
 30
0.0
 10
316.1509302955238
 20
10.11782068576559
 30
0.0
 10
316.4943280471872
 20
10.09700375337676
 30
0.0
 10
316.7859009225785
 20
9.943614191963947
 30
0.0
 10
316.7859009225785
 20
9.943614191963947
 30
0.0
 10
316.8688365408435
 20
9.943614191963947
 30
0.0
 10
316.8688365408435
 20
9.943614191963947
 30
0.0
 10
316.8688365408435
 20
9.943614191963947
 30
0.0
 10
316.9224586876828
 20
9.994988352226531
 30
0.0
 10
316.9224586876828
 20
9.994988352226531
 30
0.0
 10
316.9224586876828
 20
9.994988352226531
 30
0.0
 10
316.9959897919698
 20
9.994988352226531
 30
0.0
 10
316.9959897919698
 20
9.994988352226531
 30
0.0
 10
316.9959897919698
 20
9.994988352226531
 30
0.0
 10
317.0943399877888
 20
9.38748116454945
 30
0.0
 10
317.0943399877888
 20
9.38748116454945
 30
0.0
 10
317.0943399877888
 20
9.38748116454945
 30
0.0
 10
316.9819838673439
 20
9.38748116454945
 30
0.0
 10
316.9819838673439
 20
9.38748116454945
 30
0.0
 10
316.8762152279914
 20
9.776516687702649
 30
0.0
 10
316.4750972006175
 20
10.00614986838404
 30
0.0
 10
316.0860616774643
 20
9.900381229031305
 30
0.0
 10
316.0722559339435
 20
9.896627806476365
 30
0.0
 10
316.0585635189476
 20
9.892469327255323
 30
0.0
 10
316.0450021757352
 20
9.887911180117997
 30
0.0
 10
315.8319188125216
 20
9.816291038448321
 30
0.0
 10
315.7172402130448
 20
9.585493246273385
 30
0.0
 10
315.7888603547152
 20
9.372409883059489
 30
0.0
 10
315.8141158537921
 20
9.297270033324778
 30
0.0
 10
315.8607627164486
 20
9.231140023021612
 30
0.0
 10
315.9230740756405
 20
9.182138678476258
 30
0.0
 10
315.9230740756405
 20
9.182138678476258
 30
0.0
 10
315.9881646056929
 20
9.130951807716648
 30
0.0
 10
315.9881646056935
 20
9.130951807716648
 30
0.0
  0
HATCH
  5
30D
330
70
100
AcDbEntity
  8
Hatch
 62
   179
420
  1973831
440
 33554687
100
AcDbHatch
 10
0.0
 20
0.0
 30
0.0
210
0.0
220
0.0
230
1.0
  2
SOLID
 70
     1
 71
     1
 91
        1
 92
        1
 93
        1
 72
     4
 94
        3
 73
     0
 74
     0
 95
       86
 96
       82
 40
0.0
 40
0.0
 40
0.0
 40
0.0
 40
1.0
 40
1.0
 40
1.0
 40
2.0
 40
2.0
 40
2.0
 40
3.0
 40
3.0
 40
3.0
 40
4.0
 40
4.0
 40
4.0
 40
5.0
 40
5.0
 40
5.0
 40
6.0
 40
6.0
 40
6.0
 40
7.0
 40
7.0
 40
7.0
 40
8.0
 40
8.0
 40
8.0
 40
9.0
 40
9.0
 40
9.0
 40
10.0
 40
10.0
 40
10.0
 40
11.0
 40
11.0
 40
11.0
 40
12.0
 40
12.0
 40
12.0
 40
13.0
 40
13.0
 40
13.0
 40
14.0
 40
14.0
 40
14.0
 40
15.0
 40
15.0
 40
15.0
 40
16.0
 40
16.0
 40
16.0
 40
17.0
 40
17.0
 40
17.0
 40
18.0
 40
18.0
 40
18.0
 40
19.0
 40
19.0
 40
19.0
 40
20.0
 40
20.0
 40
20.0
 40
21.0
 40
21.0
 40
21.0
 40
22.0
 40
22.0
 40
22.0
 40
23.0
 40
23.0
 40
23.0
 40
24.0
 40
24.0
 40
24.0
 40
25.0
 40
25.0
 40
25.0
 40
26.0
 40
26.0
 40
26.0
 40
27.0
 40
27.0
 40
27.0
 40
27.0
 10
315.9881646056935
 20
9.130951807716648
 10
316.2628761710248
 20
8.900690253991017
 10
316.5575811386473
 20
8.695394002877776
 10
316.8687755515051
 20
8.517503967582523
 10
317.0594074656525
 20
8.393562987596261
 10
317.1836485758875
 20
8.189952302022964
 10
317.2066760244512
 20
7.963740830554519
 10
317.2073515380301
 20
7.957104883878781
 10
317.2079399469809
 20
7.950460358910605
 10
317.2084410993471
 20
7.943808971598785
 10
317.2400806829902
 20
7.52388253912091
 10
316.9253119994142
 20
7.157815954922865
 10
316.505385566936
 20
7.126176371279774
 10
316.2419209396166
 20
7.107819374388651
 10
315.9773728774508
 20
7.139885806006651
 10
315.7259237389519
 20
7.220656592382264
 10
315.6852735506884
 20
7.239353417064007
 10
315.6383760059321
 20
7.238808011707781
 10
315.5981716309871
 20
7.21917087102016
 10
315.5981716309871
 20
7.21917087102016
 10
315.58063735683
 20
7.161307766166205
 10
315.58063735683
 20
7.161307766166205
 10
315.58063735683
 20
7.161307766166205
 10
315.5091717175838
 20
7.161307766166205
 10
315.5091717175838
 20
7.161307766166205
 10
315.5091717175838
 20
7.161307766166205
 10
315.3917271541293
 20
7.886760479888879
 10
315.3917271541293
 20
7.886760479888879
 10
315.3917271541293
 20
7.886760479888879
 10
315.4903723893542
 20
7.886760479888879
 10
315.4903723893542
 20
7.886760479888879
 10
315.552649789369
 20
7.534633416434514
 10
315.8426173558262
 20
7.267576460716806
 10
316.1986693708867
 20
7.234426710483168
 10
316.4701643434855
 20
7.209149531446269
 10
316.728973549738
 20
7.354507201547603
 10
316.8486759463862
 20
7.599496573077582
 10
316.898852094043
 20
7.879557331496654
 10
316.7618204029791
 20
8.159851597480791
 10
316.5099911025162
 20
8.292266391323968
 10
316.1986273235279
 20
8.455985110826176
 10
315.9109710660005
 20
8.661281328452352
 10
315.6549274051756
 20
8.902513303391016
 10
315.5713335575336
 20
8.973257637265058
 10
315.507071992094
 20
9.064069741855128
 10
315.4681665102251
 20
9.166437000387773
 10
315.3412676378366
 20
9.500330556082065
 10
315.5090699833628
 20
9.87387662498634
 10
315.8429635390571
 20
10.00077549737455
 10
316.1509302955238
 20
10.11782068576559
 10
316.4943280471872
 20
10.09700375337676
 10
316.7859009225785
 20
9.943614191963947
 10
316.7859009225785
 20
9.943614191963947
 10
316.8688365408435
 20
9.943614191963947
 10
316.8688365408435
 20
9.943614191963947
 10
316.8688365408435
 20
9.943614191963947
 10
316.9224586876828
 20
9.994988352226531
 10
316.9224586876828
 20
9.994988352226531
 10
316.9224586876828
 20
9.994988352226531
 10
316.9959897919698
 20
9.994988352226531
 10
316.9959897919698
 20
9.994988352226531
 10
316.9959897919698
 20
9.994988352226531
 10
317.0943399877888
 20
9.38748116454945
 10
317.0943399877888
 20
9.38748116454945
 10
317.0943399877888
 20
9.38748116454945
 10
316.9819838673439
 20
9.38748116454945
 10
316.9819838673439
 20
9.38748116454945
 10
316.8762152279914
 20
9.776516687702649
 10
316.4750972006175
 20
10.00614986838404
 10
316.0860616774643
 20
9.900381229031305
 10
316.0722559339435
 20
9.896627806476365
 10
316.0585635189476
 20
9.892469327255323
 10
316.0450021757352
 20
9.887911180117997
 10
315.8319188125216
 20
9.816291038448321
 10
315.7172402130448
 20
9.585493246273385
 10
315.7888603547152
 20
9.372409883059489
 10
315.8141158537921
 20
9.297270033324778
 10
315.8607627164486
 20
9.231140023021612
 10
315.9230740756405
 20
9.182138678476258
 10
315.9230740756405
 20
9.182138678476258
 10
315.9881646056929
 20
9.130951807716648
 10
315.9881646056935
 20
9.130951807716648
 97
        0
 97
        1
330
30C
 75
     0
 76
     1
 98
        1
 10
0.0
 20
0.0
450
        0
451
        0
460
0.0
461
0.0
452
        0
462
0.0
453
        0
470

  0
SPLINE
  5
30E
330
70
100
AcDbEntity
  8
Hatch
100
AcDbSpline
210
0.0
220
0.0
230
1.0
 70
     9
 71
     3
 72
    26
 73
    22
 74
     0
 42
0.0000000001
 43
0.0000000001
 40
0.0
 40
0.0
 40
0.0
 40
0.0
 40
1.0
 40
1.0
 40
1.0
 40
2.0
 40
2.0
 40
2.0
 40
3.0
 40
3.0
 40
3.0
 40
4.0
 40
4.0
 40
4.0
 40
5.0
 40
5.0
 40
5.0
 40
6.0
 40
6.0
 40
6.0
 40
7.0
 40
7.0
 40
7.0
 40
7.0
 10
319.6358647263884
 20
7.104899044964231
 30
0.0
 10
319.7489796076665
 20
7.100066587542221
 30
0.0
 10
319.8622963576292
 20
7.106247501380625
 30
0.0
 10
319.9742145418082
 20
7.123354490048852
 30
0.0
 10
320.7819227110178
 20
7.21027493082206
 30
0.0
 10
321.3662366147685
 20
7.935514713469412
 30
0.0
 10
321.2793161739952
 20
8.74322288267942
 30
0.0
 10
321.206291197643
 20
9.421807453018182
 30
0.0
 10
320.6760803287287
 20
9.961024026413266
 30
0.0
 10
319.9988218011117
 20
10.04546662847808
 30
0.0
 10
319.7957913846563
 20
10.04712878907998
 30
0.0
 10
319.5927475479067
 20
10.04507784116579
 30
0.0
 10
319.389792133356
 20
10.0393148134503
 30
0.0
 10
318.5792104748714
 20
9.974525289599217
 30
0.0
 10
317.9746264948972
 20
9.264896736557124
 30
0.0
 10
318.0394160187477
 20
8.454315078072863
 30
0.0
 10
318.1042055425978
 20
7.643733419587959
 30
0.0
 10
318.8138340956405
 20
7.039149439614093
 30
0.0
 10
319.6244157541248
 20
7.103938963464538
 30
0.0
 10
319.6282333123086
 20
7.104244099627361
 30
0.0
 10
319.6320496654438
 20
7.104564129228958
 30
0.0
 10
319.6358647263884
 20
7.104899044964231
 30
0.0
  0
SPLINE
  5
30F
330
70
100
AcDbEntity
  8
Hatch
100
AcDbSpline
210
0.0
220
0.0
230
1.0
 70
     9
 71
     3
 72
    26
 73
    22
 74
     0
 42
0.0000000001
 43
0.0000000001
 40
0.0
 40
0.0
 40
0.0
 40
0.0
 40
1.0
 40
1.0
 40
1.0
 40
2.0
 40
2.0
 40
2.0
 40
3.0
 40
3.0
 40
3.0
 40
4.0
 40
4.0
 40
4.0
 40
5.0
 40
5.0
 40
5.0
 40
6.0
 40
6.0
 40
6.0
 40
7.0
 40
7.0
 40
7.0
 40
7.0
 10
319.7294097704552
 20
9.923240144198107
 30
0.0
 10
319.0983738790345
 20
9.97528339983827
 30
0.0
 10
318.5446288203394
 20
9.505917130256856
 30
0.0
 10
318.4925855646995
 20
8.874881238836797
 30
0.0
 10
318.4878768015571
 20
8.817786452768711
 30
0.0
 10
318.4874541540473
 20
8.760419029170684
 30
0.0
 10
318.4913211739401
 20
8.703261062065216
 30
0.0
 10
318.3972452311445
 20
7.994984424028573
 30
0.0
 10
318.8770897489383
 20
7.338053271348991
 30
0.0
 10
319.5804206918207
 20
7.212229331714763
 30
0.0
 10
319.6050164729345
 20
7.211016786400923
 30
0.0
 10
319.6296195904442
 20
7.209957937205781
 30
0.0
 10
319.6542286035267
 20
7.209052846139281
 30
0.0
 10
320.1745088278054
 20
7.189917540638595
 30
0.0
 10
320.6402803687089
 20
7.529391991870956
 30
0.0
 10
320.7813500007653
 20
8.030547686843103
 30
0.0
 10
320.9216595190127
 20
8.529003046112944
 30
0.0
 10
320.8246628179806
 20
9.064300388710476
 30
0.0
 10
320.5183751173411
 20
9.481831645662525
 30
0.0
 10
320.3317196058601
 20
9.736280355692715
 30
0.0
 10
320.043912001717
 20
9.897302285126221
 30
0.0
 10
319.7294097704552
 20
9.923240144198107
 30
0.0
  0
HATCH
  5
310
330
70
100
AcDbEntity
  8
Hatch
 62
   179
420
  1973831
440
 33554687
100
AcDbHatch
 10
0.0
 20
0.0
 30
0.0
210
0.0
220
0.0
230
1.0
  2
SOLID
 70
     1
 71
     1
 91
        2
 92
        1
 93
        1
 72
     4
 94
        3
 73
     0
 74
     0
 95
       26
 96
       22
 40
0.0
 40
0.0
 40
0.0
 40
0.0
 40
1.0
 40
1.0
 40
1.0
 40
2.0
 40
2.0
 40
2.0
 40
3.0
 40
3.0
 40
3.0
 40
4.0
 40
4.0
 40
4.0
 40
5.0
 40
5.0
 40
5.0
 40
6.0
 40
6.0
 40
6.0
 40
7.0
 40
7.0
 40
7.0
 40
7.0
 10
319.6358647263884
 20
7.104899044964231
 10
319.7489796076665
 20
7.100066587542221
 10
319.8622963576292
 20
7.106247501380625
 10
319.9742145418082
 20
7.123354490048852
 10
320.7819227110178
 20
7.21027493082206
 10
321.3662366147685
 20
7.935514713469412
 10
321.2793161739952
 20
8.74322288267942
 10
321.206291197643
 20
9.421807453018182
 10
320.6760803287287
 20
9.961024026413266
 10
319.9988218011117
 20
10.04546662847808
 10
319.7957913846563
 20
10.04712878907998
 10
319.5927475479067
 20
10.04507784116579
 10
319.389792133356
 20
10.0393148134503
 10
318.5792104748714
 20
9.974525289599217
 10
317.9746264948972
 20
9.264896736557124
 10
318.0394160187477
 20
8.454315078072863
 10
318.1042055425978
 20
7.643733419587959
 10
318.8138340956405
 20
7.039149439614093
 10
319.6244157541248
 20
7.103938963464538
 10
319.6282333123086
 20
7.104244099627361
 10
319.6320496654438
 20
7.104564129228958
 10
319.6358647263884
 20
7.104899044964231
 97
        0
 97
        1
330
30E
 92
        1
 93
        2
 72
     4
 94
        3
 73
     0
 74
     0
 95
       26
 96
       22
 40
0.0
 40
0.0
 40
0.0
 40
0.0
 40
1.0
 40
1.0
 40
1.0
 40
2.0
 40
2.0
 40
2.0
 40
3.0
 40
3.0
 40
3.0
 40
4.0
 40
4.0
 40
4.0
 40
5.0
 40
5.0
 40
5.0
 40
6.0
 40
6.0
 40
6.0
 40
7.0
 40
7.0
 40
7.0
 40
7.0
 10
319.7294097704552
 20
9.923240144198107
 10
319.0983738790345
 20
9.97528339983827
 10
318.5446288203394
 20
9.505917130256856
 10
318.4925855646995
 20
8.874881238836797
 10
318.4878768015571
 20
8.817786452768711
 10
318.4874541540473
 20
8.760419029170684
 10
318.4913211739401
 20
8.703261062065216
 10
318.3972452311445
 20
7.994984424028573
 10
318.8770897489383
 20
7.338053271348991
 10
319.5804206918207
 20
7.212229331714763
 10
319.6050164729345
 20
7.211016786400923
 10
319.6296195904442
 20
7.209957937205781
 10
319.6542286035267
 20
7.209052846139281
 10
320.1745088278054
 20
7.189917540638595
 10
320.6402803687089
 20
7.529391991870956
 10
320.7813500007653
 20
8.030547686843103
 10
320.9216595190127
 20
8.529003046112944
 10
320.8246628179806
 20
9.064300388710476
 10
320.5183751173411
 20
9.481831645662525
 10
320.3317196058601
 20
9.736280355692715
 10
320.043912001717
 20
9.897302285126221
 10
319.7294097704552
 20
9.923240144198107
 97
        0
 72
     1
 10
319.7294097704552
 20
9.923240144198107
 11
319.7294097704552
 21
9.923240144198107
 97
        0
 75
     0
 76
     1
 98
        1
 10
0.0
 20
0.0
450
        0
451
        0
460
0.0
461
0.0
452
        0
462
0.0
453
        0
470

  0
SPLINE
  5
311
330
70
100
AcDbEntity
  8
Hatch
100
AcDbSpline
210
0.0
220
0.0
230
1.0
 70
    11
 71
     3
 72
    80
 73
    76
 74
     0
 42
0.0000000001
 43
0.0000000001
 40
0.0
 40
0.0
 40
0.0
 40
0.0
 40
1.0
 40
1.0
 40
1.0
 40
2.0
 40
2.0
 40
2.0
 40
3.0
 40
3.0
 40
3.0
 40
4.0
 40
4.0
 40
4.0
 40
5.0
 40
5.0
 40
5.0
 40
6.0
 40
6.0
 40
6.0
 40
7.0
 40
7.0
 40
7.0
 40
8.0
 40
8.0
 40
8.0
 40
9.0
 40
9.0
 40
9.0
 40
10.0
 40
10.0
 40
10.0
 40
11.0
 40
11.0
 40
11.0
 40
12.0
 40
12.0
 40
12.0
 40
13.0
 40
13.0
 40
13.0
 40
14.0
 40
14.0
 40
14.0
 40
15.0
 40
15.0
 40
15.0
 40
16.0
 40
16.0
 40
16.0
 40
17.0
 40
17.0
 40
17.0
 40
18.0
 40
18.0
 40
18.0
 40
19.0
 40
19.0
 40
19.0
 40
20.0
 40
20.0
 40
20.0
 40
21.0
 40
21.0
 40
21.0
 40
22.0
 40
22.0
 40
22.0
 40
23.0
 40
23.0
 40
23.0
 40
24.0
 40
24.0
 40
24.0
 40
25.0
 40
25.0
 40
25.0
 40
25.0
 10
325.7790285278872
 20
6.959946396882386
 30
0.0
 10
325.7790285278872
 20
6.959946396882386
 30
0.0
 10
322.8233219953938
 20
10.04498620851105
 30
0.0
 10
322.8233219953938
 20
10.04498620851105
 30
0.0
 10
322.8233219953938
 20
10.04498620851105
 30
0.0
 10
321.8473639907069
 20
10.04498620851105
 30
0.0
 10
321.8473639907069
 20
10.04498620851105
 30
0.0
 10
321.8473639907069
 20
10.04498620851105
 30
0.0
 10
321.8473639907069
 20
9.908944640248147
 30
0.0
 10
321.8473639907069
 20
9.908944640248147
 30
0.0
 10
321.8473639907069
 20
9.908944640248147
 30
0.0
 10
321.9855512855337
 20
9.908944640248147
 30
0.0
 10
321.9855512855337
 20
9.908944640248147
 30
0.0
 10
322.1181993956897
 20
9.902187680963937
 30
0.0
 10
322.24662637107
 20
9.860075897379875
 30
0.0
 10
322.3575198340122
 20
9.786974478081214
 30
0.0
 10
322.3575198340122
 20
9.786974478081214
 30
0.0
 10
322.3575198340122
 20
6.571777534283407
 30
0.0
 10
322.3575198340122
 20
6.571777534283407
 30
0.0
 10
322.3349717470449
 20
6.393484107868593
 30
0.0
 10
322.1823476468583
 20
6.260415194444194
 30
0.0
 10
322.0026447374157
 20
6.262371330100305
 30
0.0
 10
322.0026447374157
 20
6.262371330100305
 30
0.0
 10
321.8192734116132
 20
6.262371330100305
 30
0.0
 10
321.8192734116132
 20
6.262371330100305
 30
0.0
 10
321.8192734116132
 20
6.262371330100305
 30
0.0
 10
321.8192734116132
 20
6.11505968553453
 30
0.0
 10
321.8192734116132
 20
6.11505968553453
 30
0.0
 10
321.8192734116132
 20
6.11505968553453
 30
0.0
 10
323.3057818229817
 20
6.11505968553453
 30
0.0
 10
323.3057818229817
 20
6.11505968553453
 30
0.0
 10
323.3057818229817
 20
6.11505968553453
 30
0.0
 10
323.3057818229817
 20
6.262371330100305
 30
0.0
 10
323.3057818229817
 20
6.262371330100305
 30
0.0
 10
323.3057818229817
 20
6.262371330100305
 30
0.0
 10
322.9901325588508
 20
6.262371330100305
 30
0.0
 10
322.9901325588508
 20
6.262371330100305
 30
0.0
 10
322.8172205348637
 20
6.282691189045316
 30
0.0
 10
322.6837210101174
 20
6.42399583432205
 30
0.0
 10
322.6732482529526
 20
6.597782445037217
 30
0.0
 10
322.6732482529526
 20
6.597782445037217
 30
0.0
 10
322.6732482529526
 20
9.477040936174478
 30
0.0
 10
322.6732482529526
 20
9.477040936174478
 30
0.0
 10
322.6732482529526
 20
9.477040936174478
 30
0.0
 10
325.9265823017526
 20
6.08135027786932
 30
0.0
 10
325.9265823017526
 20
6.08135027786932
 30
0.0
 10
325.9265823017526
 20
6.08135027786932
 30
0.0
 10
326.0938423634573
 20
6.08135027786932
 30
0.0
 10
326.0938423634573
 20
6.08135027786932
 30
0.0
 10
326.0938423634573
 20
6.08135027786932
 30
0.0
 10
326.093842363456
 20
9.694986884244034
 30
0.0
 10
326.093842363456
 20
9.694986884244034
 30
0.0
 10
326.1332586275538
 20
9.816376691663498
 30
0.0
 10
326.2416820843433
 20
9.902249156819594
 30
0.0
 10
326.3688729419286
 20
9.912813860675116
 30
0.0
 10
326.3688729419286
 20
9.912813860675116
 30
0.0
 10
326.6607172085664
 20
9.912813860675116
 30
0.0
 10
326.6607172085664
 20
9.912813860675116
 30
0.0
 10
326.6607172085664
 20
9.912813860675116
 30
0.0
 10
326.6607172085664
 20
10.04498620851105
 30
0.0
 10
326.6607172085664
 20
10.04498620851105
 30
0.0
 10
326.6607172085664
 20
10.04498620851105
 30
0.0
 10
325.1742979842061
 20
10.04498620851105
 30
0.0
 10
325.1742979842061
 20
10.04498620851105
 30
0.0
 10
325.1742979842061
 20
10.04498620851105
 30
0.0
 10
325.1742979842061
 20
9.920403770173845
 30
0.0
 10
325.1742979842061
 20
9.920403770173845
 30
0.0
 10
325.1742979842061
 20
9.920403770173845
 30
0.0
 10
325.3999647622837
 20
9.920403770173845
 30
0.0
 10
325.3999647622837
 20
9.920403770173845
 30
0.0
 10
325.5764353053163
 20
9.931047396734117
 30
0.0
 10
325.7355616942774
 20
9.814764643027253
 30
0.0
 10
325.7790285278864
 20
9.643400195954729
 30
0.0
 10
325.7790285278864
 20
9.643400195954729
 30
0.0
 10
325.7790285278872
 20
6.959946396882386
 30
0.0
 10
325.7790285278872
 20
6.959946396882386
 30
0.0
  0
HATCH
  5
312
330
70
100
AcDbEntity
  8
Hatch
 62
   179
420
  1973831
440
 33554687
100
AcDbHatch
 10
0.0
 20
0.0
 30
0.0
210
0.0
220
0.0
230
1.0
  2
SOLID
 70
     1
 71
     1
 91
        1
 92
        1
 93
        1
 72
     4
 94
        3
 73
     0
 74
     0
 95
       80
 96
       76
 40
0.0
 40
0.0
 40
0.0
 40
0.0
 40
1.0
 40
1.0
 40
1.0
 40
2.0
 40
2.0
 40
2.0
 40
3.0
 40
3.0
 40
3.0
 40
4.0
 40
4.0
 40
4.0
 40
5.0
 40
5.0
 40
5.0
 40
6.0
 40
6.0
 40
6.0
 40
7.0
 40
7.0
 40
7.0
 40
8.0
 40
8.0
 40
8.0
 40
9.0
 40
9.0
 40
9.0
 40
10.0
 40
10.0
 40
10.0
 40
11.0
 40
11.0
 40
11.0
 40
12.0
 40
12.0
 40
12.0
 40
13.0
 40
13.0
 40
13.0
 40
14.0
 40
14.0
 40
14.0
 40
15.0
 40
15.0
 40
15.0
 40
16.0
 40
16.0
 40
16.0
 40
17.0
 40
17.0
 40
17.0
 40
18.0
 40
18.0
 40
18.0
 40
19.0
 40
19.0
 40
19.0
 40
20.0
 40
20.0
 40
20.0
 40
21.0
 40
21.0
 40
21.0
 40
22.0
 40
22.0
 40
22.0
 40
23.0
 40
23.0
 40
23.0
 40
24.0
 40
24.0
 40
24.0
 40
25.0
 40
25.0
 40
25.0
 40
25.0
 10
325.7790285278872
 20
6.959946396882386
 10
325.7790285278872
 20
6.959946396882386
 10
322.8233219953938
 20
10.04498620851105
 10
322.8233219953938
 20
10.04498620851105
 10
322.8233219953938
 20
10.04498620851105
 10
321.8473639907069
 20
10.04498620851105
 10
321.8473639907069
 20
10.04498620851105
 10
321.8473639907069
 20
10.04498620851105
 10
321.8473639907069
 20
9.908944640248147
 10
321.8473639907069
 20
9.908944640248147
 10
321.8473639907069
 20
9.908944640248147
 10
321.9855512855337
 20
9.908944640248147
 10
321.9855512855337
 20
9.908944640248147
 10
322.1181993956897
 20
9.902187680963937
 10
322.24662637107
 20
9.860075897379875
 10
322.3575198340122
 20
9.786974478081214
 10
322.3575198340122
 20
9.786974478081214
 10
322.3575198340122
 20
6.571777534283407
 10
322.3575198340122
 20
6.571777534283407
 10
322.3349717470449
 20
6.393484107868593
 10
322.1823476468583
 20
6.260415194444194
 10
322.0026447374157
 20
6.262371330100305
 10
322.0026447374157
 20
6.262371330100305
 10
321.8192734116132
 20
6.262371330100305
 10
321.8192734116132
 20
6.262371330100305
 10
321.8192734116132
 20
6.262371330100305
 10
321.8192734116132
 20
6.11505968553453
 10
321.8192734116132
 20
6.11505968553453
 10
321.8192734116132
 20
6.11505968553453
 10
323.3057818229817
 20
6.11505968553453
 10
323.3057818229817
 20
6.11505968553453
 10
323.3057818229817
 20
6.11505968553453
 10
323.3057818229817
 20
6.262371330100305
 10
323.3057818229817
 20
6.262371330100305
 10
323.3057818229817
 20
6.262371330100305
 10
322.9901325588508
 20
6.262371330100305
 10
322.9901325588508
 20
6.262371330100305
 10
322.8172205348637
 20
6.282691189045316
 10
322.6837210101174
 20
6.42399583432205
 10
322.6732482529526
 20
6.597782445037217
 10
322.6732482529526
 20
6.597782445037217
 10
322.6732482529526
 20
9.477040936174478
 10
322.6732482529526
 20
9.477040936174478
 10
322.6732482529526
 20
9.477040936174478
 10
325.9265823017526
 20
6.08135027786932
 10
325.9265823017526
 20
6.08135027786932
 10
325.9265823017526
 20
6.08135027786932
 10
326.0938423634573
 20
6.08135027786932
 10
326.0938423634573
 20
6.08135027786932
 10
326.0938423634573
 20
6.08135027786932
 10
326.093842363456
 20
9.694986884244034
 10
326.093842363456
 20
9.694986884244034
 10
326.1332586275538
 20
9.816376691663498
 10
326.2416820843433
 20
9.902249156819594
 10
326.3688729419286
 20
9.912813860675116
 10
326.3688729419286
 20
9.912813860675116
 10
326.6607172085664
 20
9.912813860675116
 10
326.6607172085664
 20
9.912813860675116
 10
326.6607172085664
 20
9.912813860675116
 10
326.6607172085664
 20
10.04498620851105
 10
326.6607172085664
 20
10.04498620851105
 10
326.6607172085664
 20
10.04498620851105
 10
325.1742979842061
 20
10.04498620851105
 10
325.1742979842061
 20
10.04498620851105
 10
325.1742979842061
 20
10.04498620851105
 10
325.1742979842061
 20
9.920403770173845
 10
325.1742979842061
 20
9.920403770173845
 10
325.1742979842061
 20
9.920403770173845
 10
325.3999647622837
 20
9.920403770173845
 10
325.3999647622837
 20
9.920403770173845
 10
325.5764353053163
 20
9.931047396734117
 10
325.7355616942774
 20
9.814764643027253
 10
325.7790285278864
 20
9.643400195954729
 10
325.7790285278864
 20
9.643400195954729
 10
325.7790285278872
 20
6.959946396882386
 10
325.7790285278872
 20
6.959946396882386
 97
        0
 97
        1
330
311
 75
     0
 76
     1
 98
        1
 10
0.0
 20
0.0
450
        0
451
        0
460
0.0
461
0.0
452
        0
462
0.0
453
        0
470

  0
LWPOLYLINE
  5
313
330
70
100
AcDbEntity
  8
Hatch
100
AcDbPolyline
 90
        8
 70
     1
 43
0.0
 10
306.3808905780155
 20
6.123353584488907
 10
311.5617597221588
 20
6.123353584488907
 10
311.2419791012445
 20
5.789580276597296
 10
309.6001664103838
 20
5.789580276597296
 10
309.867034218987
 20
6.068125458580143
 10
308.075616081188
 20
6.068125458580143
 10
308.3424838897908
 20
5.789580276597296
 10
306.7006711989301
 20
5.789580276596653
  0
HATCH
  5
314
330
70
100
AcDbEntity
  8
Hatch
 62
   179
420
  1973831
440
 33554687
100
AcDbHatch
 10
0.0
 20
0.0
 30
0.0
210
0.0
220
0.0
230
1.0
  2
SOLID
 70
     1
 71
     1
 91
        1
 92
        1
 93
        8
 72
     1
 10
306.3808905780155
 20
6.123353584488907
 11
311.5617597221588
 21
6.123353584488907
 72
     1
 10
311.5617597221588
 20
6.123353584488907
 11
311.2419791012445
 21
5.789580276597296
 72
     1
 10
311.2419791012445
 20
5.789580276597296
 11
309.6001664103838
 21
5.789580276597296
 72
     1
 10
309.6001664103838
 20
5.789580276597296
 11
309.867034218987
 21
6.068125458580143
 72
     1
 10
309.867034218987
 20
6.068125458580143
 11
308.075616081188
 21
6.068125458580143
 72
     1
 10
308.075616081188
 20
6.068125458580143
 11
308.3424838897908
 21
5.789580276597296
 72
     1
 10
308.3424838897908
 20
5.789580276597296
 11
306.7006711989301
 21
5.789580276596653
 72
     1
 10
306.7006711989301
 20
5.789580276596653
 11
306.3808905780155
 21
6.123353584488907
 97
        1
330
313
 75
     0
 76
     1
 98
        1
 10
0.0
 20
0.0
450
        0
451
        0
460
0.0
461
0.0
452
        0
462
0.0
453
        0
470

  0
LWPOLYLINE
  5
315
330
70
100
AcDbEntity
  8
Hatch
100
AcDbPolyline
 90
        4
 70
     1
 43
0.0
 10
305.7878218777101
 20
6.28694374500964
 10
305.7878218777101
 20
6.123353584488907
 10
297.1637750582397
 20
6.123353584488907
 10
297.1637750582397
 20
6.28694374500964
  0
HATCH
  5
316
330
70
100
AcDbEntity
  8
Hatch
 62
     1
420
 16711680
440
 33554687
100
AcDbHatch
 10
0.0
 20
0.0
 30
0.0
210
0.0
220
0.0
230
1.0
  2
SOLID
 70
     1
 71
     1
 91
        1
 92
        1
 93
        4
 72
     1
 10
305.7878218777101
 20
6.28694374500964
 11
305.7878218777101
 21
6.123353584488907
 72
     1
 10
305.7878218777101
 20
6.123353584488907
 11
297.1637750582397
 21
6.123353584488907
 72
     1
 10
297.1637750582397
 20
6.123353584488907
 11
297.1637750582397
 21
6.28694374500964
 72
     1
 10
297.1637750582397
 20
6.28694374500964
 11
305.7878218777101
 21
6.28694374500964
 97
        1
330
315
 75
     0
 76
     1
 98
        1
 10
0.0
 20
0.0
450
        0
451
        0
460
0.0
461
0.0
452
        0
462
0.0
453
        0
470

  0
LWPOLYLINE
  5
317
330
70
100
AcDbEntity
  8
Hatch
100
AcDbPolyline
 90
        8
 70
     1
 43
0.0
 10
306.7006711989301
 20
6.653525902368931
 10
308.3424838897908
 20
6.653525902368931
 10
308.075616081188
 20
6.374980720385441
 10
309.867034218987
 20
6.374980720385441
 10
309.6001664103838
 20
6.653525902368931
 10
311.2419791012442
 20
6.653525902368931
 10
311.5617597221588
 20
6.319752594476677
 10
306.3808905780162
 20
6.319752594476677
  0
HATCH
  5
318
330
70
100
AcDbEntity
  8
Hatch
 62
     1
420
 16711680
440
 33554687
100
AcDbHatch
 10
0.0
 20
0.0
 30
0.0
210
0.0
220
0.0
230
1.0
  2
SOLID
 70
     1
 71
     1
 91
        1
 92
        1
 93
        8
 72
     1
 10
306.7006711989301
 20
6.653525902368931
 11
308.3424838897908
 21
6.653525902368931
 72
     1
 10
308.3424838897908
 20
6.653525902368931
 11
308.075616081188
 21
6.374980720385441
 72
     1
 10
308.075616081188
 20
6.374980720385441
 11
309.867034218987
 21
6.374980720385441
 72
     1
 10
309.867034218987
 20
6.374980720385441
 11
309.6001664103838
 21
6.653525902368931
 72
     1
 10
309.6001664103838
 20
6.653525902368931
 11
311.2419791012442
 21
6.653525902368931
 72
     1
 10
311.2419791012442
 20
6.653525902368931
 11
311.5617597221588
 21
6.319752594476677
 72
     1
 10
311.5617597221588
 20
6.319752594476677
 11
306.3808905780162
 21
6.319752594476677
 72
     1
 10
306.3808905780162
 20
6.319752594476677
 11
306.7006711989301
 21
6.653525902368931
 97
        1
330
317
 75
     0
 76
     1
 98
        1
 10
0.0
 20
0.0
450
        0
451
        0
460
0.0
461
0.0
452
        0
462
0.0
453
        0
470

  0
LWPOLYLINE
  5
319
330
70
100
AcDbEntity
  8
Hatch
100
AcDbPolyline
 90
        4
 70
     1
 43
0.0
 10
320.7788752419354
 20
6.28694374500964
 10
312.1548284224643
 20
6.28694374500964
 10
312.1548284224643
 20
6.123353584488907
 10
320.7788752419354
 20
6.123353584488907
  0
HATCH
  5
31A
330
70
100
AcDbEntity
  8
Hatch
 62
     1
420
 16711680
440
 33554687
100
AcDbHatch
 10
0.0
 20
0.0
 30
0.0
210
0.0
220
0.0
230
1.0
  2
SOLID
 70
     1
 71
     1
 91
        1
 92
        1
 93
        4
 72
     1
 10
320.7788752419354
 20
6.28694374500964
 11
312.1548284224643
 21
6.28694374500964
 72
     1
 10
312.1548284224643
 20
6.28694374500964
 11
312.1548284224643
 21
6.123353584488907
 72
     1
 10
312.1548284224643
 20
6.123353584488907
 11
320.7788752419354
 21
6.123353584488907
 72
     1
 10
320.7788752419354
 20
6.123353584488907
 11
320.7788752419354
 21
6.28694374500964
 97
        1
330
319
 75
     0
 76
     1
 98
        1
 10
0.0
 20
0.0
450
        0
451
        0
460
0.0
461
0.0
452
        0
462
0.0
453
        0
470

  0
ENDSEC
  0
SECTION
  2
OBJECTS
  0
DICTIONARY
  5
C
330
0
100
AcDbDictionary
281
     1
  3
ACAD_COLOR
350
63
  3
ACAD_DETAILVIEWSTYLE
350
6A
  3
ACAD_GROUP
350
D
  3
ACAD_LAYOUT
350
62
  3
ACAD_MATERIAL
350
10
  3
ACAD_MLEADERSTYLE
350
66
  3
ACAD_MLINESTYLE
350
5F
  3
ACAD_PLOTSETTINGS
350
61
  3
ACAD_PLOTSTYLENAME
350
E
  3
ACAD_SCALELIST
350
42
  3
ACAD_SECTIONVIEWSTYLE
350
68
  3
ACAD_TABLESTYLE
350
64
  3
ACAD_VISUALSTYLE
350
29
  3
ACDB_RECOMPOSE_DATA
350
323
  3
AcDbVariableDictionary
350
31B
  0
DICTIONARY
  5
63
102
{ACAD_REACTORS
330
C
102
}
330
C
100
AcDbDictionary
281
     1
  0
DICTIONARY
  5
6A
102
{ACAD_REACTORS
330
C
102
}
330
C
100
AcDbDictionary
281
     1
  3
Imperial24
350
6B
  0
DICTIONARY
  5
D
102
{ACAD_REACTORS
330
C
102
}
330
C
100
AcDbDictionary
281
     1
  0
DICTIONARY
  5
62
102
{ACAD_REACTORS
330
C
102
}
330
C
100
AcDbDictionary
281
     1
  3
Layout1
350
6F
  3
Layout2
350
77
  3
Model
350
73
  0
DICTIONARY
  5
10
102
{ACAD_REACTORS
330
C
102
}
330
C
100
AcDbDictionary
281
     1
  3
ByBlock
350
19
  3
ByLayer
350
11
  3
Global
350
21
  0
DICTIONARY
  5
66
102
{ACAD_REACTORS
330
C
102
}
330
C
100
AcDbDictionary
281
     1
  3
Standard
350
67
  0
DICTIONARY
  5
5F
102
{ACAD_REACTORS
330
C
102
}
330
C
100
AcDbDictionary
281
     1
  3
Standard
350
60
  0
DICTIONARY
  5
61
102
{ACAD_REACTORS
330
C
102
}
330
C
100
AcDbDictionary
281
     1
  0
ACDBDICTIONARYWDFLT
  5
E
102
{ACAD_REACTORS
330
C
102
}
330
C
100
AcDbDictionary
281
     1
  3
Normal
350
F
100
AcDbDictionaryWithDefault
340
F
  0
DICTIONARY
  5
42
102
{ACAD_REACTORS
330
C
102
}
330
C
100
AcDbDictionary
281
     1
  3
A0
350
43
  3
A1
350
44
  3
A2
350
45
  3
A3
350
46
  3
A4
350
47
  3
A5
350
48
  3
A6
350
49
  3
A7
350
4A
  3
A8
350
4B
  3
A9
350
4C
  3
B0
350
4D
  3
B1
350
4E
  3
B2
350
4F
  3
B3
350
50
  3
B4
350
51
  3
B5
350
52
  3
B6
350
53
  0
DICTIONARY
  5
68
102
{ACAD_REACTORS
330
C
102
}
330
C
100
AcDbDictionary
281
     1
  3
Imperial24
350
69
  0
DICTIONARY
  5
64
102
{ACAD_REACTORS
330
C
102
}
330
C
100
AcDbDictionary
281
     1
  3
Standard
350
65
  0
DICTIONARY
  5
29
102
{ACAD_REACTORS
330
C
102
}
330
C
100
AcDbDictionary
281
     1
  3
2dWireframe
350
2F
  3
Basic
350
2E
  3
Brighten
350
35
  3
ColorChange
350
39
  3
Conceptual
350
32
  3
Dim
350
34
  3
EdgeColorOff
350
41
  3
Facepattern
350
38
  3
Flat
350
2A
  3
FlatWithEdges
350
2B
  3
Gouraud
350
2C
  3
GouraudWithEdges
350
2D
  3
Hidden
350
31
  3
JitterOff
350
3F
  3
Linepattern
350
37
  3
OverhangOff
350
40
  3
Realistic
350
33
  3
Shaded
350
3E
  3
Shaded with edges
350
3D
  3
Shades of Gray
350
3A
  3
Sketchy
350
3B
  3
Thicken
350
36
  3
Wireframe
350
30
  3
X-Ray
350
3C
  0
XRECORD
  5
323
102
{ACAD_REACTORS
330
C
102
}
330
C
100
AcDbXrecord
280
     1
 90
        1
330
65
  0
DICTIONARY
  5
31B
102
{ACAD_REACTORS
330
C
102
}
330
C
100
AcDbDictionary
281
     1
  3
CANNOSCALE
350
320
  3
CMLEADERSTYLE
350
31D
  3
CTABLESTYLE
350
31C
  3
CVIEWDETAILSTYLE
350
31E
  3
CVIEWSECTIONSTYLE
350
31F
  0
ACDBDETAILVIEWSTYLE
  5
6B
102
{ACAD_REACTORS
330
6A
102
}
330
6A
100
AcDbModelDocViewStyle
 70
     0
  3
Imperial24
290
     1
300
Imperial24
 90
        0
100
AcDbDetailViewStyle
 70
     0
 71
     0
 90
        3
 71
     1
340
55
 62
   256
 40
0.24
340
0
 62
   256
 40
0.24
300

 40
0.36
280
     3
 71
     2
340
5D
 90
       25
 62
   256
 71
     3
340
55
 62
   256
 40
0.24
 90
        1
 40
0.75
 90
        1
300
%<\AcVar ViewType \f "%tc1">% %<\AcVar ViewDetailId>%\PSCALE %<\AcVar ViewScale \f "%sn">%
 71
     4
340
5D
 90
       25
 62
   256
340
5D
 90
       25
 62
   256
280
     0
  0
LAYOUT
  5
6F
102
{ACAD_REACTORS
330
62
102
}
330
62
100
AcDbPlotSettings
  1

  2

  4

  6

 40
0.0
 41
0.0
 42
0.0
 43
0.0
 44
0.0
 45
0.0
 46
0.0
 47
0.0
 48
0.0
 49
0.0
140
0.0
141
0.0
142
1.0
143
1.0
 70
   688
 72
     0
 73
     0
 74
     5
  7

 75
    16
147
1.0
 76
     0
 77
     2
 78
   300
148
0.0
149
0.0
100
AcDbLayout
  1
Layout1
 70
     1
 71
     1
 10
0.0
 20
0.0
 11
12.0
 21
9.0
 12
0.0
 22
0.0
 32
0.0
 14
0.0
 24
0.0
 34
0.0
 15
0.0
 25
0.0
 35
0.0
146
0.0
 13
0.0
 23
0.0
 33
0.0
 16
1.0
 26
0.0
 36
0.0
 17
0.0
 27
1.0
 37
0.0
 76
     0
330
6C
  0
LAYOUT
  5
77
102
{ACAD_REACTORS
330
62
102
}
330
62
100
AcDbPlotSettings
  1

  2

  4

  6

 40
0.0
 41
0.0
 42
0.0
 43
0.0
 44
0.0
 45
0.0
 46
0.0
 47
0.0
 48
0.0
 49
0.0
140
0.0
141
0.0
142
1.0
143
1.0
 70
   688
 72
     0
 73
     0
 74
     5
  7

 75
    16
147
1.0
 76
     0
 77
     2
 78
   300
148
0.0
149
0.0
100
AcDbLayout
  1
Layout2
 70
     1
 71
     2
 10
0.0
 20
0.0
 11
12.0
 21
9.0
 12
0.0
 22
0.0
 32
0.0
 14
0.0
 24
0.0
 34
0.0
 15
0.0
 25
0.0
 35
0.0
146
0.0
 13
0.0
 23
0.0
 33
0.0
 16
1.0
 26
0.0
 36
0.0
 17
0.0
 27
1.0
 37
0.0
 76
     0
330
74
  0
LAYOUT
  5
73
102
{ACAD_REACTORS
330
62
102
}
330
62
100
AcDbPlotSettings
  1

  2

  4

  6

 40
0.0
 41
0.0
 42
0.0
 43
0.0
 44
0.0
 45
0.0
 46
0.0
 47
0.0
 48
0.0
 49
0.0
140
0.0
141
0.0
142
1.0
143
1.0
 70
  1712
 72
     0
 73
     0
 74
     0
  7

 75
     0
147
1.0
 76
     0
 77
     2
 78
   300
148
0.0
149
0.0
100
AcDbLayout
  1
Model
 70
     1
 71
     0
 10
0.0
 20
0.0
 11
12.0
 21
9.0
 12
0.0
 22
0.0
 32
0.0
 14
0.0
 24
0.0
 34
0.0
 15
0.0
 25
0.0
 35
0.0
146
0.0
 13
0.0
 23
0.0
 33
0.0
 16
1.0
 26
0.0
 36
0.0
 17
0.0
 27
1.0
 37
0.0
 76
     0
330
70
  0
MATERIAL
  5
19
102
{ACAD_XDICTIONARY
360
1A
102
}
102
{ACAD_REACTORS
330
10
102
}
330
10
100
AcDbMaterial
  1
ByBlock
 72
     0
 43
0.0208333333333333
 43
0.0
 43
0.0
 43
0.0
 43
0.0
 43
0.0208333333333333
 43
0.0
 43
0.0
 43
0.0
 43
0.0
 43
1.0
 43
0.0
 43
0.0
 43
0.0
 43
0.0
 43
1.0
 77
     0
 47
0.0208333333333333
 47
0.0
 47
0.0
 47
0.0
 47
0.0
 47
0.0208333333333333
 47
0.0
 47
0.0
 47
0.0
 47
0.0
 47
1.0
 47
0.0
 47
0.0
 47
0.0
 47
0.0
 47
1.0
171
     0
 49
0.0208333333333333
 49
0.0
 49
0.0
 49
0.0
 49
0.0
 49
0.0208333333333333
 49
0.0
 49
0.0
 49
0.0
 49
0.0
 49
1.0
 49
0.0
 49
0.0
 49
0.0
 49
0.0
 49
1.0
175
     0
142
0.0208333333333333
142
0.0
142
0.0
142
0.0
142
0.0
142
0.0208333333333333
142
0.0
142
0.0
142
0.0
142
0.0
142
1.0
142
0.0
142
0.0
142
0.0
142
0.0
142
1.0
179
     0
144
0.0208333333333333
144
0.0
144
0.0
144
0.0
144
0.0
144
0.0208333333333333
144
0.0
144
0.0
144
0.0
144
0.0
144
1.0
144
0.0
144
0.0
144
0.0
144
0.0
144
1.0
147
0.0208333333333333
147
0.0
147
0.0
147
0.0
147
0.0
147
0.0208333333333333
147
0.0
147
0.0
147
0.0
147
0.0
147
1.0
147
0.0
147
0.0
147
0.0
147
0.0
147
1.0
  0
MATERIAL
  5
11
102
{ACAD_XDICTIONARY
360
12
102
}
102
{ACAD_REACTORS
330
10
102
}
330
10
100
AcDbMaterial
  1
ByLayer
 72
     0
 43
0.0208333333333333
 43
0.0
 43
0.0
 43
0.0
 43
0.0
 43
0.0208333333333333
 43
0.0
 43
0.0
 43
0.0
 43
0.0
 43
1.0
 43
0.0
 43
0.0
 43
0.0
 43
0.0
 43
1.0
 77
     0
 47
0.0208333333333333
 47
0.0
 47
0.0
 47
0.0
 47
0.0
 47
0.0208333333333333
 47
0.0
 47
0.0
 47
0.0
 47
0.0
 47
1.0
 47
0.0
 47
0.0
 47
0.0
 47
0.0
 47
1.0
171
     0
 49
0.0208333333333333
 49
0.0
 49
0.0
 49
0.0
 49
0.0
 49
0.0208333333333333
 49
0.0
 49
0.0
 49
0.0
 49
0.0
 49
1.0
 49
0.0
 49
0.0
 49
0.0
 49
0.0
 49
1.0
175
     0
142
0.0208333333333333
142
0.0
142
0.0
142
0.0
142
0.0
142
0.0208333333333333
142
0.0
142
0.0
142
0.0
142
0.0
142
1.0
142
0.0
142
0.0
142
0.0
142
0.0
142
1.0
179
     0
144
0.0208333333333333
144
0.0
144
0.0
144
0.0
144
0.0
144
0.0208333333333333
144
0.0
144
0.0
144
0.0
144
0.0
144
1.0
144
0.0
144
0.0
144
0.0
144
0.0
144
1.0
147
0.0208333333333333
147
0.0
147
0.0
147
0.0
147
0.0
147
0.0208333333333333
147
0.0
147
0.0
147
0.0
147
0.0
147
1.0
147
0.0
147
0.0
147
0.0
147
0.0
147
1.0
  0
MATERIAL
  5
21
102
{ACAD_XDICTIONARY
360
22
102
}
102
{ACAD_REACTORS
330
10
102
}
330
10
100
AcDbMaterial
  1
Global
 72
     0
 43
0.0208333333333333
 43
0.0
 43
0.0
 43
0.0
 43
0.0
 43
0.0208333333333333
 43
0.0
 43
0.0
 43
0.0
 43
0.0
 43
1.0
 43
0.0
 43
0.0
 43
0.0
 43
0.0
 43
1.0
 77
     0
 47
0.0208333333333333
 47
0.0
 47
0.0
 47
0.0
 47
0.0
 47
0.0208333333333333
 47
0.0
 47
0.0
 47
0.0
 47
0.0
 47
1.0
 47
0.0
 47
0.0
 47
0.0
 47
0.0
 47
1.0
171
     0
 49
0.0208333333333333
 49
0.0
 49
0.0
 49
0.0
 49
0.0
 49
0.0208333333333333
 49
0.0
 49
0.0
 49
0.0
 49
0.0
 49
1.0
 49
0.0
 49
0.0
 49
0.0
 49
0.0
 49
1.0
175
     0
142
0.0208333333333333
142
0.0
142
0.0
142
0.0
142
0.0
142
0.0208333333333333
142
0.0
142
0.0
142
0.0
142
0.0
142
1.0
142
0.0
142
0.0
142
0.0
142
0.0
142
1.0
179
     0
144
0.0208333333333333
144
0.0
144
0.0
144
0.0
144
0.0
144
0.0208333333333333
144
0.0
144
0.0
144
0.0
144
0.0
144
1.0
144
0.0
144
0.0
144
0.0
144
0.0
144
1.0
147
0.0208333333333333
147
0.0
147
0.0
147
0.0
147
0.0
147
0.0208333333333333
147
0.0
147
0.0
147
0.0
147
0.0
147
1.0
147
0.0
147
0.0
147
0.0
147
0.0
147
1.0
  0
MLEADERSTYLE
  5
67
102
{ACAD_REACTORS
330
66
102
}
330
66
100
AcDbMLeaderStyle
179
     2
170
     2
171
     1
172
     0
 90
        2
 40
0.0
 41
0.0
173
     1
 91
-1056964608
340
5B
 92
       -2
290
     1
 42
0.09
291
     1
 43
0.36
  3
Standard
 44
0.18
300

342
55
174
     1
178
     6
175
     1
176
     0
 93
-1056964608
 45
0.18
292
     0
297
     0
 46
0.18
 94
-1056964608
 47
1.0
 49
1.0
140
1.0
293
     1
141
0.0
294
     1
177
     0
142
1.0
295
     1
296
     0
143
0.125
271
     0
272
     9
273
     9
298
     1
  0
MLINESTYLE
  5
60
102
{ACAD_REACTORS
330
5F
102
}
330
5F
100
AcDbMlineStyle
  2
STANDARD
 70
     0
  3

 62
   256
 51
90.0
 52
90.0
 71
     2
 49
0.5
 62
   256
  6
BYLAYER
 49
-0.5
 62
   256
  6
BYLAYER
  0
ACDBPLACEHOLDER
  5
F
102
{ACAD_REACTORS
330
E
102
}
330
E
  0
SCALE
  5
43
102
{ACAD_REACTORS
330
42
102
}
330
42
100
AcDbScale
 70
     0
300
1:1
140
1.0
141
1.0
290
     1
  0
SCALE
  5
44
102
{ACAD_REACTORS
330
42
102
}
330
42
100
AcDbScale
 70
     0
300
1/128" = 1'-0"
140
0.0078125
141
12.0
290
     0
  0
SCALE
  5
45
102
{ACAD_REACTORS
330
42
102
}
330
42
100
AcDbScale
 70
     0
300
1/64" = 1'-0"
140
0.015625
141
12.0
290
     0
  0
SCALE
  5
46
102
{ACAD_REACTORS
330
42
102
}
330
42
100
AcDbScale
 70
     0
300
1/32" = 1'-0"
140
0.03125
141
12.0
290
     0
  0
SCALE
  5
47
102
{ACAD_REACTORS
330
42
102
}
330
42
100
AcDbScale
 70
     0
300
1/16" = 1'-0"
140
0.0625
141
12.0
290
     0
  0
SCALE
  5
48
102
{ACAD_REACTORS
330
42
102
}
330
42
100
AcDbScale
 70
     0
300
3/32" = 1'-0"
140
0.09375
141
12.0
290
     0
  0
SCALE
  5
49
102
{ACAD_REACTORS
330
42
102
}
330
42
100
AcDbScale
 70
     0
300
1/8" = 1'-0"
140
0.125
141
12.0
290
     0
  0
SCALE
  5
4A
102
{ACAD_REACTORS
330
42
102
}
330
42
100
AcDbScale
 70
     0
300
3/16" = 1'-0"
140
0.1875
141
12.0
290
     0
  0
SCALE
  5
4B
102
{ACAD_REACTORS
330
42
102
}
330
42
100
AcDbScale
 70
     0
300
1/4" = 1'-0"
140
0.25
141
12.0
290
     0
  0
SCALE
  5
4C
102
{ACAD_REACTORS
330
42
102
}
330
42
100
AcDbScale
 70
     0
300
3/8" = 1'-0"
140
0.375
141
12.0
290
     0
  0
SCALE
  5
4D
102
{ACAD_REACTORS
330
42
102
}
330
42
100
AcDbScale
 70
     0
300
1/2" = 1'-0"
140
0.5
141
12.0
290
     0
  0
SCALE
  5
4E
102
{ACAD_REACTORS
330
42
102
}
330
42
100
AcDbScale
 70
     0
300
3/4" = 1'-0"
140
0.75
141
12.0
290
     0
  0
SCALE
  5
4F
102
{ACAD_REACTORS
330
42
102
}
330
42
100
AcDbScale
 70
     0
300
1" = 1'-0"
140
1.0
141
12.0
290
     0
  0
SCALE
  5
50
102
{ACAD_REACTORS
330
42
102
}
330
42
100
AcDbScale
 70
     0
300
1-1/2" = 1'-0"
140
1.5
141
12.0
290
     0
  0
SCALE
  5
51
102
{ACAD_REACTORS
330
42
102
}
330
42
100
AcDbScale
 70
     0
300
3" = 1'-0"
140
3.0
141
12.0
290
     0
  0
SCALE
  5
52
102
{ACAD_REACTORS
330
42
102
}
330
42
100
AcDbScale
 70
     0
300
6" = 1'-0"
140
6.0
141
12.0
290
     0
  0
SCALE
  5
53
102
{ACAD_REACTORS
330
42
102
}
330
42
100
AcDbScale
 70
     0
300
1'-0" = 1'-0"
140
12.0
141
12.0
290
     0
  0
ACDBSECTIONVIEWSTYLE
  5
69
102
{ACAD_REACTORS
330
68
102
}
330
68
100
AcDbModelDocViewStyle
 70
     0
  3
Imperial24
290
     1
300
Imperial24
 90
        0
100
AcDbSectionViewStyle
 70
     0
 71
     0
 90
       78
 71
     1
340
55
 62
   256
 40
0.24
340
0
340
0
 62
   256
 40
0.24
300
I, O, Q, S, X, Z
 40
0.48
 90
        3
 40
0.18
 90
        1
 71
     2
340
5D
 90
       25
 62
   256
340
5D
 90
       50
 62
   256
 40
0.24
 40
0.0
 40
0.24
 71
     3
340
55
 62
   256
 40
0.24
 90
        1
 40
0.75
 90
        1
300
%<\AcVar ViewType \f "%tc1">% %<\AcVar ViewSectionStartId>%-%<\AcVar ViewSectionEndId>%\PSCALE %<\AcVar ViewScale \f "%sn">%
 71
     4
 62
   256
 62
   257
300
ANSI31
 40
1.0
 90
        0
290
     0
290
     0
 90
        6
 40
0.0
 40
1.570796326794896
 40
0.2617993877991494
 40
1.308996938995747
 40
-0.2617993877991494
 40
1.832595714594046
  0
TABLESTYLE
  5
65
102
{ACAD_XDICTIONARY
360
321
102
}
102
{ACAD_REACTORS
330
64
102
}
330
64
100
AcDbTableStyle
280
     0
  3
Standard
 70
     0
 71
     0
 40
0.06
 41
0.06
280
     0
281
     0
  7
Standard
140
0.18
170
     2
 62
     0
 63
     7
283
     0
 90
      512
 91
        0
  1

274
    -2
284
     1
 64
     0
275
    -2
285
     1
 65
     0
276
    -2
286
     1
 66
     0
277
    -2
287
     1
 67
     0
278
    -2
288
     1
 68
     0
279
    -2
289
     1
 69
     0
  7
Standard
140
0.25
170
     5
 62
     0
 63
     7
283
     0
 90
      512
 91
        0
  1

274
    -2
284
     1
 64
     0
275
    -2
285
     1
 65
     0
276
    -2
286
     1
 66
     0
277
    -2
287
     1
 67
     0
278
    -2
288
     1
 68
     0
279
    -2
289
     1
 69
     0
  7
Standard
140
0.18
170
     5
 62
     0
 63
     7
283
     0
 90
      512
 91
        0
  1

274
    -2
284
     1
 64
     0
275
    -2
285
     1
 65
     0
276
    -2
286
     1
 66
     0
277
    -2
287
     1
 67
     0
278
    -2
288
     1
 68
     0
279
    -2
289
     1
 69
     0
  0
VISUALSTYLE
  5
2F
102
{ACAD_REACTORS
330
29
102
}
330
29
100
AcDbVisualStyle
  2
2dWireframe
 70
     4
177
     3
291
     0
 70
    58
 90
        0
176
     1
 90
        2
176
     1
 90
        0
176
     1
 90
        0
176
     1
 40
0.6
176
     1
 40
30.0
176
     1
 62
     7
420
 16777215
176
     1
 90
        1
176
     1
 90
        4
176
     1
 62
     7
176
     1
 62
   257
176
     1
 90
        1
176
     1
 90
        1
176
     1
 40
1.0
176
     1
 90
        0
176
     1
 62
   257
176
     1
 40
1.0
176
     1
 90
        1
176
     1
 90
        6
176
     1
 90
        2
176
     1
 62
     7
176
     1
 90
        5
176
     1
 90
        0
176
     1
 90
        0
176
     1
290
     0
176
     1
 90
        1
176
     1
 40
0.0
176
     1
 90
        0
176
     1
290
     1
176
     1
290
     1
176
     1
290
     0
176
     1
290
     0
176
     1
290
     0
176
     1
290
     0
176
     1
290
     0
176
     1
290
     0
176
     1
290
     0
176
     1
 90
       50
176
     1
 40
0.0
176
     1
 40
1.0
176
     1
 90
        0
176
     1
 62
    18
420
        0
176
     1
 90
       50
176
     1
 90
        3
176
     1
 62
     5
420
      255
176
     1
290
     0
176
     1
 90
       50
176
     1
 90
       50
176
     1
 90
       50
176
     1
290
     0
176
     1
 90
       50
176
     1
 62
   256
176
     0
 40
1.0
176
     0
 90
        2
176
     1
  1
strokes_ogs.tif
176
     1
290
     0
176
     1
 40
1.0
176
     1
 40
1.0
176
     1
  0
VISUALSTYLE
  5
2E
102
{ACAD_REACTORS
330
29
102
}
330
29
100
AcDbVisualStyle
  2
Basic
 70
     7
177
     3
291
     1
 70
    58
 90
        1
176
     1
 90
        0
176
     1
 90
        1
176
     1
 90
        0
176
     1
 40
0.6
176
     1
 40
30.0
176
     1
 62
     7
420
 16777215
176
     1
 90
        0
176
     1
 90
        4
176
     1
 62
     7
176
     1
 62
   257
176
     1
 90
        1
176
     1
 90
        1
176
     1
 40
1.0
176
     1
 90
        8
176
     1
 62
     7
176
     1
 40
1.0
176
     1
 90
        1
176
     1
 90
        6
176
     1
 90
        2
176
     1
 62
     7
176
     1
 90
        5
176
     1
 90
        0
176
     1
 90
        0
176
     1
290
     0
176
     1
 90
        1
176
     1
 40
0.0
176
     1
 90
        0
176
     1
290
     0
176
     1
290
     1
176
     1
290
     1
176
     1
290
     0
176
     1
290
     0
176
     1
290
     0
176
     1
290
     0
176
     1
290
     0
176
     1
290
     0
176
     1
 90
       50
176
     1
 40
0.0
176
     1
 40
1.0
176
     1
 90
        0
176
     1
 62
    18
420
        0
176
     1
 90
       50
176
     1
 90
        3
176
     1
 62
     5
420
      255
176
     1
290
     0
176
     1
 90
       50
176
     1
 90
       50
176
     1
 90
       50
176
     1
290
     0
176
     1
 90
       50
176
     1
 62
   256
176
     0
 40
1.0
176
     0
 90
        2
176
     1
  1
strokes_ogs.tif
176
     1
290
     0
176
     1
 40
1.0
176
     1
 40
1.0
176
     1
  0
VISUALSTYLE
  5
35
102
{ACAD_REACTORS
330
29
102
}
330
29
100
AcDbVisualStyle
  2
Brighten
 70
    12
177
     3
291
     1
 70
    58
 90
        2
176
     1
 90
        2
176
     1
 90
        0
176
     1
 90
        0
176
     1
 40
0.6
176
     1
 40
30.0
176
     1
 62
     7
420
 16777215
176
     1
 90
        1
176
     1
 90
        4
176
     1
 62
     7
176
     1
 62
   257
176
     1
 90
        1
176
     1
 90
        1
176
     1
 40
1.0
176
     1
 90
        8
176
     1
 62
     7
176
     1
 40
1.0
176
     1
 90
        1
176
     1
 90
        6
176
     1
 90
        2
176
     1
 62
     7
176
     1
 90
        5
176
     1
 90
        0
176
     1
 90
        0
176
     1
290
     0
176
     1
 90
        1
176
     1
 40
50.0
176
     1
 90
        0
176
     1
290
     0
176
     1
290
     1
176
     1
290
     1
176
     1
290
     0
176
     1
290
     0
176
     1
290
     0
176
     1
290
     0
176
     1
290
     0
176
     1
290
     0
176
     1
 90
       50
176
     1
 40
0.0
176
     1
 40
1.0
176
     1
 90
        0
176
     1
 62
    18
420
        0
176
     1
 90
       50
176
     1
 90
        3
176
     1
 62
     5
420
      255
176
     1
290
     0
176
     1
 90
       50
176
     1
 90
       50
176
     1
 90
       50
176
     1
290
     0
176
     1
 90
       50
176
     1
 62
   256
176
     0
 40
1.0
176
     0
 90
        2
176
     1
  1
strokes_ogs.tif
176
     1
290
     0
176
     1
 40
1.0
176
     1
 40
1.0
176
     1
  0
VISUALSTYLE
  5
39
102
{ACAD_REACTORS
330
29
102
}
330
29
100
AcDbVisualStyle
  2
ColorChange
 70
    16
177
     3
291
     1
 70
    58
 90
        2
176
     1
 90
        2
176
     1
 90
        3
176
     1
 90
        0
176
     1
 40
0.6
176
     1
 40
30.0
176
     1
 62
     8
420
  8421504
176
     1
 90
        1
176
     1
 90
        4
176
     1
 62
     7
176
     1
 62
   257
176
     1
 90
        1
176
     1
 90
        1
176
     1
 40
1.0
176
     1
 90
        8
176
     1
 62
     8
420
  8421504
176
     1
 40
1.0
176
     1
 90
        1
176
     1
 90
        6
176
     1
 90
        2
176
     1
 62
     7
176
     1
 90
        5
176
     1
 90
        0
176
     1
 90
        0
176
     1
290
     0
176
     1
 90
        1
176
     1
 40
0.0
176
     1
 90
        0
176
     1
290
     0
176
     1
290
     1
176
     1
290
     1
176
     1
290
     0
176
     1
290
     0
176
     1
290
     0
176
     1
290
     0
176
     1
290
     0
176
     1
290
     0
176
     1
 90
       50
176
     1
 40
0.0
176
     1
 40
1.0
176
     1
 90
        0
176
     1
 62
    18
420
        0
176
     1
 90
       50
176
     1
 90
        3
176
     1
 62
     5
420
      255
176
     1
290
     0
176
     1
 90
       50
176
     1
 90
       50
176
     1
 90
       50
176
     1
290
     0
176
     1
 90
       50
176
     1
 62
   256
176
     0
 40
1.0
176
     0
 90
        2
176
     1
  1
strokes_ogs.tif
176
     1
290
     0
176
     1
 40
1.0
176
     1
 40
1.0
176
     1
  0
VISUALSTYLE
  5
32
102
{ACAD_REACTORS
330
29
102
}
330
29
100
AcDbVisualStyle
  2
Conceptual
 70
     9
177
     3
291
     0
 70
    58
 90
        3
176
     1
 90
        2
176
     1
 90
        0
176
     1
 90
        0
176
     1
 40
0.6
176
     1
 40
30.0
176
     1
 62
     7
420
 16777215
176
     1
 90
        2
176
     1
 90
        2
176
     1
 62
     7
176
     1
 62
   257
176
     1
 90
        1
176
     1
 90
        1
176
     1
 40
179.0
176
     1
 90
        8
176
     1
 62
     7
176
     1
 40
1.0
176
     1
 90
        1
176
     1
 90
        6
176
     1
 90
        2
176
     1
 62
     7
176
     1
 90
        3
176
     1
 90
        0
176
     1
 90
        0
176
     1
290
     0
176
     1
 90
        1
176
     1
 40
0.0
176
     1
 90
        0
176
     1
290
     0
176
     1
290
     1
176
     1
290
     1
176
     1
290
     0
176
     1
290
     0
176
     1
290
     0
176
     1
290
     0
176
     1
290
     0
176
     1
290
     0
176
     1
 90
       50
176
     1
 40
0.0
176
     1
 40
1.0
176
     1
 90
        0
176
     1
 62
    18
420
        0
176
     1
 90
       50
176
     1
 90
        3
176
     1
 62
     5
420
      255
176
     1
290
     0
176
     1
 90
       50
176
     1
 90
       50
176
     1
 90
       50
176
     1
290
     0
176
     1
 90
       50
176
     1
 62
   256
176
     0
 40
1.0
176
     0
 90
        2
176
     1
  1
strokes_ogs.tif
176
     1
290
     0
176
     1
 40
1.0
176
     1
 40
1.0
176
     1
  0
VISUALSTYLE
  5
34
102
{ACAD_REACTORS
330
29
102
}
330
29
100
AcDbVisualStyle
  2
Dim
 70
    11
177
     3
291
     1
 70
    58
 90
        2
176
     1
 90
        2
176
     1
 90
        0
176
     1
 90
        0
176
     1
 40
0.6
176
     1
 40
30.0
176
     1
 62
     7
420
 16777215
176
     1
 90
        1
176
     1
 90
        4
176
     1
 62
     7
176
     1
 62
   257
176
     1
 90
        1
176
     1
 90
        1
176
     1
 40
1.0
176
     1
 90
        8
176
     1
 62
     7
176
     1
 40
1.0
176
     1
 90
        1
176
     1
 90
        6
176
     1
 90
        2
176
     1
 62
     7
176
     1
 90
        5
176
     1
 90
        0
176
     1
 90
        0
176
     1
290
     0
176
     1
 90
        1
176
     1
 40
-50.0
176
     1
 90
        0
176
     1
290
     0
176
     1
290
     1
176
     1
290
     1
176
     1
290
     0
176
     1
290
     0
176
     1
290
     0
176
     1
290
     0
176
     1
290
     0
176
     1
290
     0
176
     1
 90
       50
176
     1
 40
0.0
176
     1
 40
1.0
176
     1
 90
        0
176
     1
 62
    18
420
        0
176
     1
 90
       50
176
     1
 90
        3
176
     1
 62
     5
420
      255
176
     1
290
     0
176
     1
 90
       50
176
     1
 90
       50
176
     1
 90
       50
176
     1
290
     0
176
     1
 90
       50
176
     1
 62
   256
176
     0
 40
1.0
176
     0
 90
        2
176
     1
  1
strokes_ogs.tif
176
     1
290
     0
176
     1
 40
1.0
176
     1
 40
1.0
176
     1
  0
VISUALSTYLE
  5
41
102
{ACAD_REACTORS
330
29
102
}
330
29
100
AcDbVisualStyle
  2
EdgeColorOff
 70
    22
177
     3
291
     1
 70
    58
 90
        2
176
     0
 90
        2
176
     0
 90
        0
176
     0
 90
        0
176
     0
 40
0.6
176
     0
 40
30.0
176
     0
 62
     7
420
 16777215
176
     0
 90
        1
176
     0
 90
        4
176
     0
 62
     7
176
     0
 62
   257
176
     0
 90
        1
176
     0
 90
        1
176
     0
 40
1.0
176
     0
 90
        8
176
     2
 62
     7
176
     0
 40
1.0
176
     0
 90
        1
176
     0
 90
        6
176
     0
 90
        2
176
     0
 62
     7
176
     0
 90
        5
176
     0
 90
        0
176
     0
 90
        0
176
     0
290
     0
176
     0
 90
        1
176
     0
 40
0.0
176
     0
 90
        0
176
     0
290
     0
176
     0
290
     1
176
     0
290
     1
176
     0
290
     0
176
     0
290
     0
176
     0
290
     0
176
     0
290
     0
176
     0
290
     0
176
     0
290
     0
176
     0
 90
       50
176
     0
 40
0.0
176
     0
 40
1.0
176
     0
 90
        0
176
     0
 62
    18
420
        0
176
     0
 90
       50
176
     0
 90
        3
176
     0
 62
     5
420
      255
176
     0
290
     0
176
     0
 90
       50
176
     0
 90
       50
176
     0
 90
       50
176
     0
290
     0
176
     0
 90
       50
176
     0
 62
   256
176
     0
 40
1.0
176
     0
 90
        2
176
     0
  1
strokes_ogs.tif
176
     0
290
     0
176
     0
 40
1.0
176
     0
 40
1.0
176
     0
  0
VISUALSTYLE
  5
38
102
{ACAD_REACTORS
330
29
102
}
330
29
100
AcDbVisualStyle
  2
Facepattern
 70
    15
177
     3
291
     1
 70
    58
 90
        2
176
     1
 90
        2
176
     1
 90
        0
176
     1
 90
        0
176
     1
 40
0.6
176
     1
 40
30.0
176
     1
 62
     7
420
 16777215
176
     1
 90
        1
176
     1
 90
        4
176
     1
 62
     7
176
     1
 62
   257
176
     1
 90
        1
176
     1
 90
        1
176
     1
 40
1.0
176
     1
 90
        8
176
     1
 62
     7
176
     1
 40
1.0
176
     1
 90
        1
176
     1
 90
        6
176
     1
 90
        2
176
     1
 62
     7
176
     1
 90
        5
176
     1
 90
        0
176
     1
 90
        0
176
     1
290
     0
176
     1
 90
        1
176
     1
 40
0.0
176
     1
 90
        0
176
     1
290
     0
176
     1
290
     1
176
     1
290
     1
176
     1
290
     0
176
     1
290
     0
176
     1
290
     0
176
     1
290
     0
176
     1
290
     0
176
     1
290
     0
176
     1
 90
       50
176
     1
 40
0.0
176
     1
 40
1.0
176
     1
 90
        0
176
     1
 62
    18
420
        0
176
     1
 90
       50
176
     1
 90
        3
176
     1
 62
     5
420
      255
176
     1
290
     0
176
     1
 90
       50
176
     1
 90
       50
176
     1
 90
       50
176
     1
290
     0
176
     1
 90
       50
176
     1
 62
   256
176
     0
 40
1.0
176
     0
 90
        2
176
     1
  1
strokes_ogs.tif
176
     1
290
     0
176
     1
 40
1.0
176
     1
 40
1.0
176
     1
  0
VISUALSTYLE
  5
2A
102
{ACAD_REACTORS
330
29
102
}
330
29
100
AcDbVisualStyle
  2
Flat
 70
     0
177
     3
291
     1
 70
    58
 90
        2
176
     1
 90
        1
176
     1
 90
        1
176
     1
 90
        2
176
     1
 40
0.6
176
     1
 40
30.0
176
     1
 62
     7
420
 16777215
176
     1
 90
        0
176
     1
 90
        0
176
     1
 62
     7
176
     1
 62
   257
176
     1
 90
        1
176
     1
 90
        1
176
     1
 40
1.0
176
     1
 90
        8
176
     1
 62
     7
176
     1
 40
1.0
176
     1
 90
        1
176
     1
 90
        6
176
     1
 90
        2
176
     1
 62
     7
176
     1
 90
        5
176
     1
 90
        0
176
     1
 90
        0
176
     1
290
     0
176
     1
 90
       13
176
     1
 40
0.0
176
     1
 90
        0
176
     1
290
     0
176
     1
290
     1
176
     1
290
     1
176
     1
290
     0
176
     1
290
     0
176
     1
290
     0
176
     1
290
     0
176
     1
290
     0
176
     1
290
     0
176
     1
 90
       50
176
     1
 40
0.0
176
     1
 40
1.0
176
     1
 90
        0
176
     1
 62
    18
420
        0
176
     1
 90
       50
176
     1
 90
        3
176
     1
 62
     5
420
      255
176
     1
290
     0
176
     1
 90
       50
176
     1
 90
       50
176
     1
 90
       50
176
     1
290
     0
176
     1
 90
       50
176
     1
 62
   256
176
     0
 40
1.0
176
     0
 90
        2
176
     1
  1
strokes_ogs.tif
176
     1
290
     0
176
     1
 40
1.0
176
     1
 40
1.0
176
     1
  0
VISUALSTYLE
  5
2B
102
{ACAD_REACTORS
330
29
102
}
330
29
100
AcDbVisualStyle
  2
FlatWithEdges
 70
     1
177
     3
291
     1
 70
    58
 90
        2
176
     1
 90
        1
176
     1
 90
        1
176
     1
 90
        2
176
     1
 40
0.6
176
     1
 40
30.0
176
     1
 62
     7
420
 16777215
176
     1
 90
        1
176
     1
 90
        0
176
     1
 62
     7
176
     1
 62
   257
176
     1
 90
        1
176
     1
 90
        1
176
     1
 40
1.0
176
     1
 90
        0
176
     1
 62
   257
176
     1
 40
1.0
176
     1
 90
        1
176
     1
 90
        6
176
     1
 90
        2
176
     1
 62
     7
176
     1
 90
        5
176
     1
 90
        0
176
     1
 90
        0
176
     1
290
     0
176
     1
 90
       13
176
     1
 40
0.0
176
     1
 90
        0
176
     1
290
     0
176
     1
290
     1
176
     1
290
     1
176
     1
290
     0
176
     1
290
     0
176
     1
290
     0
176
     1
290
     0
176
     1
290
     0
176
     1
290
     0
176
     1
 90
       50
176
     1
 40
0.0
176
     1
 40
1.0
176
     1
 90
        0
176
     1
 62
    18
420
        0
176
     1
 90
       50
176
     1
 90
        3
176
     1
 62
     5
420
      255
176
     1
290
     0
176
     1
 90
       50
176
     1
 90
       50
176
     1
 90
       50
176
     1
290
     0
176
     1
 90
       50
176
     1
 62
   256
176
     0
 40
1.0
176
     0
 90
        2
176
     1
  1
strokes_ogs.tif
176
     1
290
     0
176
     1
 40
1.0
176
     1
 40
1.0
176
     1
  0
VISUALSTYLE
  5
2C
102
{ACAD_REACTORS
330
29
102
}
330
29
100
AcDbVisualStyle
  2
Gouraud
 70
     2
177
     3
291
     1
 70
    58
 90
        2
176
     1
 90
        2
176
     1
 90
        1
176
     1
 90
        2
176
     1
 40
0.6
176
     1
 40
30.0
176
     1
 62
     7
420
 16777215
176
     1
 90
        0
176
     1
 90
        0
176
     1
 62
     7
176
     1
 62
   257
176
     1
 90
        1
176
     1
 90
        1
176
     1
 40
1.0
176
     1
 90
        0
176
     1
 62
     7
176
     1
 40
1.0
176
     1
 90
        1
176
     1
 90
        6
176
     1
 90
        2
176
     1
 62
     7
176
     1
 90
        5
176
     1
 90
        0
176
     1
 90
        0
176
     1
290
     0
176
     1
 90
       13
176
     1
 40
0.0
176
     1
 90
        0
176
     1
290
     0
176
     1
290
     1
176
     1
290
     1
176
     1
290
     0
176
     1
290
     0
176
     1
290
     0
176
     1
290
     0
176
     1
290
     0
176
     1
290
     0
176
     1
 90
       50
176
     1
 40
0.0
176
     1
 40
1.0
176
     1
 90
        0
176
     1
 62
    18
420
        0
176
     1
 90
       50
176
     1
 90
        3
176
     1
 62
     5
420
      255
176
     1
290
     0
176
     1
 90
       50
176
     1
 90
       50
176
     1
 90
       50
176
     1
290
     0
176
     1
 90
       50
176
     1
 62
   256
176
     0
 40
1.0
176
     0
 90
        2
176
     1
  1
strokes_ogs.tif
176
     1
290
     0
176
     1
 40
1.0
176
     1
 40
1.0
176
     1
  0
VISUALSTYLE
  5
2D
102
{ACAD_REACTORS
330
29
102
}
330
29
100
AcDbVisualStyle
  2
GouraudWithEdges
 70
     3
177
     3
291
     1
 70
    58
 90
        2
176
     1
 90
        2
176
     1
 90
        1
176
     1
 90
        2
176
     1
 40
0.6
176
     1
 40
30.0
176
     1
 62
     7
420
 16777215
176
     1
 90
        1
176
     1
 90
        0
176
     1
 62
     7
176
     1
 62
   257
176
     1
 90
        1
176
     1
 90
        1
176
     1
 40
1.0
176
     1
 90
        0
176
     1
 62
   257
176
     1
 40
1.0
176
     1
 90
        1
176
     1
 90
        6
176
     1
 90
        2
176
     1
 62
     7
176
     1
 90
        5
176
     1
 90
        0
176
     1
 90
        0
176
     1
290
     0
176
     1
 90
       13
176
     1
 40
0.0
176
     1
 90
        0
176
     1
290
     0
176
     1
290
     1
176
     1
290
     1
176
     1
290
     0
176
     1
290
     0
176
     1
290
     0
176
     1
290
     0
176
     1
290
     0
176
     1
290
     0
176
     1
 90
       50
176
     1
 40
0.0
176
     1
 40
1.0
176
     1
 90
        0
176
     1
 62
    18
420
        0
176
     1
 90
       50
176
     1
 90
        3
176
     1
 62
     5
420
      255
176
     1
290
     0
176
     1
 90
       50
176
     1
 90
       50
176
     1
 90
       50
176
     1
290
     0
176
     1
 90
       50
176
     1
 62
   256
176
     0
 40
1.0
176
     0
 90
        2
176
     1
  1
strokes_ogs.tif
176
     1
290
     0
176
     1
 40
1.0
176
     1
 40
1.0
176
     1
  0
VISUALSTYLE
  5
31
102
{ACAD_REACTORS
330
29
102
}
330
29
100
AcDbVisualStyle
  2
Hidden
 70
     6
177
     3
291
     0
 70
    58
 90
        1
176
     1
 90
        2
176
     1
 90
        2
176
     1
 90
        0
176
     1
 40
0.6
176
     1
 40
30.0
176
     1
 62
     7
420
 16777215
176
     1
 90
        2
176
     1
 90
        2
176
     1
 62
     7
176
     1
 62
   257
176
     1
 90
        2
176
     1
 90
        1
176
     1
 40
40.0
176
     1
 90
        0
176
     1
 62
   257
176
     1
 40
1.0
176
     1
 90
        1
176
     1
 90
        6
176
     1
 90
        2
176
     1
 62
     7
176
     1
 90
        3
176
     1
 90
        0
176
     1
 90
        0
176
     1
290
     0
176
     1
 90
        1
176
     1
 40
0.0
176
     1
 90
        0
176
     1
290
     0
176
     1
290
     1
176
     1
290
     1
176
     1
290
     0
176
     1
290
     0
176
     1
290
     0
176
     1
290
     0
176
     1
290
     0
176
     1
290
     0
176
     1
 90
       50
176
     1
 40
0.0
176
     1
 40
1.0
176
     1
 90
        0
176
     1
 62
    18
420
        0
176
     1
 90
       50
176
     1
 90
        3
176
     1
 62
     5
420
      255
176
     1
290
     0
176
     1
 90
       50
176
     1
 90
       50
176
     1
 90
       50
176
     1
290
     0
176
     1
 90
       50
176
     1
 62
   256
176
     0
 40
1.0
176
     0
 90
        2
176
     1
  1
strokes_ogs.tif
176
     1
290
     0
176
     1
 40
1.0
176
     1
 40
1.0
176
     1
  0
VISUALSTYLE
  5
3F
102
{ACAD_REACTORS
330
29
102
}
330
29
100
AcDbVisualStyle
  2
JitterOff
 70
    20
177
     3
291
     1
 70
    58
 90
        2
176
     0
 90
        2
176
     0
 90
        0
176
     0
 90
        0
176
     0
 40
0.6
176
     0
 40
30.0
176
     0
 62
     7
420
 16777215
176
     0
 90
        1
176
     0
 90
        4
176
     0
 62
     7
176
     0
 62
   257
176
     0
 90
        1
176
     0
 90
        1
176
     0
 40
1.0
176
     0
 90
       10
176
     2
 62
     7
176
     0
 40
1.0
176
     0
 90
        1
176
     0
 90
        6
176
     0
 90
        2
176
     0
 62
     7
176
     0
 90
        5
176
     0
 90
        0
176
     0
 90
        0
176
     0
290
     0
176
     0
 90
        1
176
     0
 40
0.0
176
     0
 90
        0
176
     0
290
     0
176
     0
290
     1
176
     0
290
     1
176
     0
290
     0
176
     0
290
     0
176
     0
290
     0
176
     0
290
     0
176
     0
290
     0
176
     0
290
     0
176
     0
 90
       50
176
     0
 40
0.0
176
     0
 40
1.0
176
     0
 90
        0
176
     0
 62
    18
420
        0
176
     0
 90
       50
176
     0
 90
        3
176
     0
 62
     5
420
      255
176
     0
290
     0
176
     0
 90
       50
176
     0
 90
       50
176
     0
 90
       50
176
     0
290
     0
176
     0
 90
       50
176
     0
 62
   256
176
     0
 40
1.0
176
     0
 90
        2
176
     0
  1
strokes_ogs.tif
176
     0
290
     0
176
     0
 40
1.0
176
     0
 40
1.0
176
     0
  0
VISUALSTYLE
  5
37
102
{ACAD_REACTORS
330
29
102
}
330
29
100
AcDbVisualStyle
  2
Linepattern
 70
    14
177
     3
291
     1
 70
    58
 90
        2
176
     1
 90
        2
176
     1
 90
        0
176
     1
 90
        0
176
     1
 40
0.6
176
     1
 40
30.0
176
     1
 62
     7
420
 16777215
176
     1
 90
        1
176
     1
 90
        4
176
     1
 62
     7
176
     1
 62
   257
176
     1
 90
        7
176
     1
 90
        7
176
     1
 40
1.0
176
     1
 90
        8
176
     1
 62
     7
176
     1
 40
1.0
176
     1
 90
        1
176
     1
 90
        6
176
     1
 90
        2
176
     1
 62
     7
176
     1
 90
        5
176
     1
 90
        0
176
     1
 90
        0
176
     1
290
     0
176
     1
 90
        1
176
     1
 40
0.0
176
     1
 90
        0
176
     1
290
     0
176
     1
290
     1
176
     1
290
     1
176
     1
290
     0
176
     1
290
     0
176
     1
290
     0
176
     1
290
     0
176
     1
290
     0
176
     1
290
     0
176
     1
 90
       50
176
     1
 40
0.0
176
     1
 40
1.0
176
     1
 90
        0
176
     1
 62
    18
420
        0
176
     1
 90
       50
176
     1
 90
        3
176
     1
 62
     5
420
      255
176
     1
290
     0
176
     1
 90
       50
176
     1
 90
       50
176
     1
 90
       50
176
     1
290
     0
176
     1
 90
       50
176
     1
 62
   256
176
     0
 40
1.0
176
     0
 90
        2
176
     1
  1
strokes_ogs.tif
176
     1
290
     0
176
     1
 40
1.0
176
     1
 40
1.0
176
     1
  0
VISUALSTYLE
  5
40
102
{ACAD_REACTORS
330
29
102
}
330
29
100
AcDbVisualStyle
  2
OverhangOff
 70
    21
177
     3
291
     1
 70
    58
 90
        2
176
     0
 90
        2
176
     0
 90
        0
176
     0
 90
        0
176
     0
 40
0.6
176
     0
 40
30.0
176
     0
 62
     7
420
 16777215
176
     0
 90
        1
176
     0
 90
        4
176
     0
 62
     7
176
     0
 62
   257
176
     0
 90
        1
176
     0
 90
        1
176
     0
 40
1.0
176
     0
 90
        9
176
     2
 62
     7
176
     0
 40
1.0
176
     0
 90
        1
176
     0
 90
        6
176
     0
 90
        2
176
     0
 62
     7
176
     0
 90
        5
176
     0
 90
        0
176
     0
 90
        0
176
     0
290
     0
176
     0
 90
        1
176
     0
 40
0.0
176
     0
 90
        0
176
     0
290
     0
176
     0
290
     1
176
     0
290
     1
176
     0
290
     0
176
     0
290
     0
176
     0
290
     0
176
     0
290
     0
176
     0
290
     0
176
     0
290
     0
176
     0
 90
       50
176
     0
 40
0.0
176
     0
 40
1.0
176
     0
 90
        0
176
     0
 62
    18
420
        0
176
     0
 90
       50
176
     0
 90
        3
176
     0
 62
     5
420
      255
176
     0
290
     0
176
     0
 90
       50
176
     0
 90
       50
176
     0
 90
       50
176
     0
290
     0
176
     0
 90
       50
176
     0
 62
   256
176
     0
 40
1.0
176
     0
 90
        2
176
     0
  1
strokes_ogs.tif
176
     0
290
     0
176
     0
 40
1.0
176
     0
 40
1.0
176
     0
  0
VISUALSTYLE
  5
33
102
{ACAD_REACTORS
330
29
102
}
330
29
100
AcDbVisualStyle
  2
Realistic
 70
     8
177
     3
291
     0
 70
    58
 90
        2
176
     1
 90
        3
176
     1
 90
        0
176
     1
 90
        2
176
     1
 40
0.6
176
     1
 40
30.0
176
     1
 62
     7
420
 16777215
176
     1
 90
        0
176
     1
 90
        0
176
     1
 62
     7
176
     1
 62
   257
176
     1
 90
        1
176
     1
 90
        1
176
     1
 40
1.0
176
     1
 90
        8
176
     1
 62
   257
176
     1
 40
1.0
176
     1
 90
        1
176
     1
 90
        6
176
     1
 90
        2
176
     1
 62
     7
176
     1
 90
        3
176
     1
 90
        0
176
     1
 90
        0
176
     1
290
     0
176
     1
 90
       13
176
     1
 40
0.0
176
     1
 90
        0
176
     1
290
     0
176
     1
290
     1
176
     1
290
     1
176
     1
290
     0
176
     1
290
     0
176
     1
290
     0
176
     1
290
     0
176
     1
290
     0
176
     1
290
     0
176
     1
 90
       50
176
     1
 40
0.0
176
     1
 40
1.0
176
     1
 90
        0
176
     1
 62
    18
420
        0
176
     1
 90
       50
176
     1
 90
        3
176
     1
 62
     5
420
      255
176
     1
290
     0
176
     1
 90
       50
176
     1
 90
       50
176
     1
 90
       50
176
     1
290
     0
176
     1
 90
       50
176
     1
 62
   256
176
     0
 40
1.0
176
     0
 90
        2
176
     1
  1
strokes_ogs.tif
176
     1
290
     0
176
     1
 40
1.0
176
     1
 40
1.0
176
     1
  0
VISUALSTYLE
  5
3E
102
{ACAD_REACTORS
330
29
102
}
330
29
100
AcDbVisualStyle
  2
Shaded
 70
    27
177
     3
291
     0
 70
    58
 90
        2
176
     1
 90
        2
176
     1
 90
        1
176
     1
 90
        2
176
     1
 40
0.6
176
     1
 40
30.0
176
     1
 62
     7
420
 16777215
176
     1
 90
        0
176
     1
 90
        4
176
     1
 62
     7
176
     1
 62
   257
176
     1
 90
        1
176
     1
 90
        1
176
     1
 40
1.0
176
     1
 90
        8
176
     1
 62
   257
176
     1
 40
1.0
176
     1
 90
        1
176
     1
 90
        6
176
     1
 90
        2
176
     1
 62
     8
420
  7895160
176
     1
 90
        3
176
     1
 90
        0
176
     1
 90
        0
176
     1
290
     0
176
     1
 90
        5
176
     1
 40
0.0
176
     1
 90
        0
176
     1
290
     0
176
     1
290
     1
176
     1
290
     1
176
     1
290
     0
176
     1
290
     0
176
     1
290
     0
176
     1
290
     0
176
     1
290
     0
176
     1
290
     0
176
     1
 90
       50
176
     1
 40
0.0
176
     1
 40
1.0
176
     1
 90
        0
176
     1
 62
    18
420
        0
176
     1
 90
       50
176
     1
 90
        3
176
     1
 62
     5
420
      255
176
     1
290
     0
176
     1
 90
       50
176
     1
 90
       50
176
     1
 90
       50
176
     1
290
     0
176
     1
 90
       50
176
     1
 62
   256
176
     0
 40
1.0
176
     0
 90
        2
176
     1
  1
strokes_ogs.tif
176
     1
290
     0
176
     1
 40
1.0
176
     1
 40
1.0
176
     1
  0
VISUALSTYLE
  5
3D
102
{ACAD_REACTORS
330
29
102
}
330
29
100
AcDbVisualStyle
  2
Shaded with edges
 70
    26
177
     3
291
     0
 70
    58
 90
        2
176
     1
 90
        2
176
     1
 90
        1
176
     1
 90
        2
176
     1
 40
0.6
176
     1
 40
30.0
176
     1
 62
     7
420
 16777215
176
     1
 90
        1
176
     1
 90
        2
176
     1
 62
     7
176
     1
 62
   257
176
     1
 90
        2
176
     1
 90
        1
176
     1
 40
1.0
176
     1
 90
        8
176
     1
 62
   257
176
     1
 40
1.0
176
     1
 90
        1
176
     1
 90
        6
176
     1
 90
        2
176
     1
 62
     7
176
     1
 90
        3
176
     1
 90
        0
176
     1
 90
        0
176
     1
290
     0
176
     1
 90
        5
176
     1
 40
0.0
176
     1
 90
        0
176
     1
290
     0
176
     1
290
     1
176
     1
290
     1
176
     1
290
     0
176
     1
290
     0
176
     1
290
     0
176
     1
290
     0
176
     1
290
     0
176
     1
290
     0
176
     1
 90
       50
176
     1
 40
0.0
176
     1
 40
1.0
176
     1
 90
        0
176
     1
 62
    18
420
        0
176
     1
 90
       50
176
     1
 90
        3
176
     1
 62
     5
420
      255
176
     1
290
     0
176
     1
 90
       50
176
     1
 90
       50
176
     1
 90
       50
176
     1
290
     0
176
     1
 90
       50
176
     1
 62
   256
176
     0
 40
1.0
176
     0
 90
        2
176
     1
  1
strokes_ogs.tif
176
     1
290
     0
176
     1
 40
1.0
176
     1
 40
1.0
176
     1
  0
VISUALSTYLE
  5
3A
102
{ACAD_REACTORS
330
29
102
}
330
29
100
AcDbVisualStyle
  2
Shades of Gray
 70
    23
177
     3
291
     0
 70
    58
 90
        2
176
     1
 90
        2
176
     1
 90
        3
176
     1
 90
        0
176
     1
 40
0.6
176
     1
 40
30.0
176
     1
 62
     7
420
 16777215
176
     1
 90
        2
176
     1
 90
        2
176
     1
 62
     7
176
     1
 62
     7
176
     1
 90
        1
176
     1
 90
        1
176
     1
 40
40.0
176
     1
 90
        8
176
     1
 62
     7
176
     1
 40
1.0
176
     1
 90
        1
176
     1
 90
        6
176
     1
 90
        2
176
     1
 62
     7
176
     1
 90
        3
176
     1
 90
        0
176
     1
 90
        0
176
     1
290
     0
176
     1
 90
        1
176
     1
 40
0.0
176
     1
 90
        0
176
     1
290
     0
176
     1
290
     1
176
     1
290
     1
176
     1
290
     0
176
     1
290
     0
176
     1
290
     0
176
     1
290
     0
176
     1
290
     0
176
     1
290
     0
176
     1
 90
       50
176
     1
 40
0.0
176
     1
 40
1.0
176
     1
 90
        0
176
     1
 62
    18
420
        0
176
     1
 90
       50
176
     1
 90
        3
176
     1
 62
     5
420
      255
176
     1
290
     0
176
     1
 90
       50
176
     1
 90
       50
176
     1
 90
       50
176
     1
290
     0
176
     1
 90
       50
176
     1
 62
   256
176
     0
 40
1.0
176
     0
 90
        2
176
     1
  1
strokes_ogs.tif
176
     1
290
     0
176
     1
 40
1.0
176
     1
 40
1.0
176
     1
  0
VISUALSTYLE
  5
3B
102
{ACAD_REACTORS
330
29
102
}
330
29
100
AcDbVisualStyle
  2
Sketchy
 70
    24
177
     3
291
     0
 70
    58
 90
        1
176
     1
 90
        2
176
     1
 90
        2
176
     1
 90
        0
176
     1
 40
0.6
176
     1
 40
30.0
176
     1
 62
     7
420
 16777215
176
     1
 90
        2
176
     1
 90
        2
176
     1
 62
     7
176
     1
 62
     7
176
     1
 90
        1
176
     1
 90
        1
176
     1
 40
40.0
176
     1
 90
       11
176
     1
 62
     7
176
     1
 40
1.0
176
     1
 90
        1
176
     1
 90
        6
176
     1
 90
        2
176
     1
 62
     7
176
     1
 90
        6
176
     1
 90
        0
176
     1
 90
        0
176
     1
290
     0
176
     1
 90
        1
176
     1
 40
0.0
176
     1
 90
        0
176
     1
290
     0
176
     1
290
     1
176
     1
290
     1
176
     1
290
     0
176
     1
290
     0
176
     1
290
     0
176
     1
290
     0
176
     1
290
     0
176
     1
290
     0
176
     1
 90
       50
176
     1
 40
0.0
176
     1
 40
1.0
176
     1
 90
        0
176
     1
 62
    18
420
        0
176
     1
 90
       50
176
     1
 90
        3
176
     1
 62
     5
420
      255
176
     1
290
     0
176
     1
 90
       50
176
     1
 90
       50
176
     1
 90
       50
176
     1
290
     0
176
     1
 90
       50
176
     1
 62
   256
176
     0
 40
1.0
176
     0
 90
        2
176
     1
  1
strokes_ogs.tif
176
     1
290
     0
176
     1
 40
1.0
176
     1
 40
1.0
176
     1
  0
VISUALSTYLE
  5
36
102
{ACAD_REACTORS
330
29
102
}
330
29
100
AcDbVisualStyle
  2
Thicken
 70
    13
177
     3
291
     1
 70
    58
 90
        2
176
     1
 90
        2
176
     1
 90
        0
176
     1
 90
        0
176
     1
 40
0.6
176
     1
 40
30.0
176
     1
 62
     7
420
 16777215
176
     1
 90
        1
176
     1
 90
        4
176
     1
 62
     7
176
     1
 62
   257
176
     1
 90
        1
176
     1
 90
        1
176
     1
 40
1.0
176
     1
 90
       12
176
     1
 62
     7
176
     1
 40
1.0
176
     1
 90
        1
176
     1
 90
        6
176
     1
 90
        2
176
     1
 62
     7
176
     1
 90
        5
176
     1
 90
        0
176
     1
 90
        0
176
     1
290
     0
176
     1
 90
        1
176
     1
 40
0.0
176
     1
 90
        0
176
     1
290
     0
176
     1
290
     1
176
     1
290
     1
176
     1
290
     0
176
     1
290
     0
176
     1
290
     0
176
     1
290
     0
176
     1
290
     0
176
     1
290
     0
176
     1
 90
       50
176
     1
 40
0.0
176
     1
 40
1.0
176
     1
 90
        0
176
     1
 62
    18
420
        0
176
     1
 90
       50
176
     1
 90
        3
176
     1
 62
     5
420
      255
176
     1
290
     0
176
     1
 90
       50
176
     1
 90
       50
176
     1
 90
       50
176
     1
290
     0
176
     1
 90
       50
176
     1
 62
   256
176
     0
 40
1.0
176
     0
 90
        2
176
     1
  1
strokes_ogs.tif
176
     1
290
     0
176
     1
 40
1.0
176
     1
 40
1.0
176
     1
  0
VISUALSTYLE
  5
30
102
{ACAD_REACTORS
330
29
102
}
330
29
100
AcDbVisualStyle
  2
Wireframe
 70
     5
177
     3
291
     0
 70
    58
 90
        0
176
     1
 90
        2
176
     1
 90
        0
176
     1
 90
        0
176
     1
 40
0.6
176
     1
 40
30.0
176
     1
 62
     7
420
 16777215
176
     1
 90
        1
176
     1
 90
        4
176
     1
 62
     7
176
     1
 62
   257
176
     1
 90
        1
176
     1
 90
        1
176
     1
 40
1.0
176
     1
 90
        0
176
     1
 62
   257
176
     1
 40
1.0
176
     1
 90
        1
176
     1
 90
        6
176
     1
 90
        2
176
     1
 62
     7
176
     1
 90
        3
176
     1
 90
        0
176
     1
 90
        0
176
     1
290
     0
176
     1
 90
        1
176
     1
 40
0.0
176
     1
 90
        0
176
     1
290
     0
176
     1
290
     1
176
     1
290
     1
176
     1
290
     0
176
     1
290
     0
176
     1
290
     0
176
     1
290
     0
176
     1
290
     0
176
     1
290
     0
176
     1
 90
       50
176
     1
 40
0.0
176
     1
 40
1.0
176
     1
 90
        0
176
     1
 62
    18
420
        0
176
     1
 90
       50
176
     1
 90
        3
176
     1
 62
     5
420
      255
176
     1
290
     0
176
     1
 90
       50
176
     1
 90
       50
176
     1
 90
       50
176
     1
290
     0
176
     1
 90
       50
176
     1
 62
   256
176
     0
 40
1.0
176
     0
 90
        2
176
     1
  1
strokes_ogs.tif
176
     1
290
     0
176
     1
 40
1.0
176
     1
 40
1.0
176
     1
  0
VISUALSTYLE
  5
3C
102
{ACAD_REACTORS
330
29
102
}
330
29
100
AcDbVisualStyle
  2
X-Ray
 70
    25
177
     3
291
     0
 70
    58
 90
        2
176
     1
 90
        2
176
     1
 90
        1
176
     1
 90
        1
176
     1
 40
0.5
176
     1
 40
30.0
176
     1
 62
     7
420
 16777215
176
     1
 90
        1
176
     1
 90
        0
176
     1
 62
     7
176
     1
 62
   257
176
     1
 90
        1
176
     1
 90
        1
176
     1
 40
1.0
176
     1
 90
        8
176
     1
 62
     7
176
     1
 40
1.0
176
     1
 90
        1
176
     1
 90
        6
176
     1
 90
        2
176
     1
 62
     7
176
     1
 90
        3
176
     1
 90
        0
176
     1
 90
        0
176
     1
290
     0
176
     1
 90
       13
176
     1
 40
0.0
176
     1
 90
        0
176
     1
290
     0
176
     1
290
     1
176
     1
290
     1
176
     1
290
     0
176
     1
290
     0
176
     1
290
     0
176
     1
290
     0
176
     1
290
     0
176
     1
290
     0
176
     1
 90
       50
176
     1
 40
0.0
176
     1
 40
1.0
176
     1
 90
        0
176
     1
 62
    18
420
        0
176
     1
 90
       50
176
     1
 90
        3
176
     1
 62
     5
420
      255
176
     1
290
     0
176
     1
 90
       50
176
     1
 90
       50
176
     1
 90
       50
176
     1
290
     0
176
     1
 90
       50
176
     1
 62
   256
176
     0
 40
1.0
176
     0
 90
        2
176
     1
  1
strokes_ogs.tif
176
     1
290
     0
176
     1
 40
1.0
176
     1
 40
1.0
176
     1
  0
DICTIONARYVAR
  5
320
102
{ACAD_REACTORS
330
31B
102
}
330
31B
100
DictionaryVariables
280
     0
  1
1:1
  0
DICTIONARYVAR
  5
31D
102
{ACAD_REACTORS
330
31B
102
}
330
31B
100
DictionaryVariables
280
     0
  1
STANDARD
  0
DICTIONARYVAR
  5
31C
102
{ACAD_REACTORS
330
31B
102
}
330
31B
100
DictionaryVariables
280
     0
  1
STANDARD
  0
DICTIONARYVAR
  5
31E
102
{ACAD_REACTORS
330
31B
102
}
330
31B
100
DictionaryVariables
280
     0
  1
Imperial24
  0
DICTIONARYVAR
  5
31F
102
{ACAD_REACTORS
330
31B
102
}
330
31B
100
DictionaryVariables
280
     0
  1
Imperial24
  0
DICTIONARY
  5
1A
330
19
100
AcDbDictionary
280
     1
281
     1
  3
BUMPTILE
360
1C
  3
DIFFUSETILE
360
1B
  3
OPACITYTILE
360
1F
  3
REFLECTIONTILE
360
1E
  3
REFRACTIONTILE
360
20
  3
SPECULARTILE
360
1D
  0
DICTIONARY
  5
12
330
11
100
AcDbDictionary
280
     1
281
     1
  3
BUMPTILE
360
14
  3
DIFFUSETILE
360
13
  3
OPACITYTILE
360
17
  3
REFLECTIONTILE
360
16
  3
REFRACTIONTILE
360
18
  3
SPECULARTILE
360
15
  0
DICTIONARY
  5
22
330
21
100
AcDbDictionary
280
     1
281
     1
  3
BUMPTILE
360
24
  3
DIFFUSETILE
360
23
  3
OPACITYTILE
360
27
  3
REFLECTIONTILE
360
26
  3
REFRACTIONTILE
360
28
  3
SPECULARTILE
360
25
  0
DICTIONARY
  5
321
330
65
100
AcDbDictionary
280
     1
281
     1
  3
ACAD_ROUNDTRIP_2008_TABLESTYLE_CELLSTYLEMAP
360
322
  0
XRECORD
  5
1C
102
{ACAD_REACTORS
330
1A
102
}
330
1A
100
AcDbXrecord
280
     1
270
     1
271
     1
  0
XRECORD
  5
1B
102
{ACAD_REACTORS
330
1A
102
}
330
1A
100
AcDbXrecord
280
     1
270
     1
271
     1
  0
XRECORD
  5
1F
102
{ACAD_REACTORS
330
1A
102
}
330
1A
100
AcDbXrecord
280
     1
270
     1
271
     1
  0
XRECORD
  5
1E
102
{ACAD_REACTORS
330
1A
102
}
330
1A
100
AcDbXrecord
280
     1
270
     1
271
     1
  0
XRECORD
  5
20
102
{ACAD_REACTORS
330
1A
102
}
330
1A
100
AcDbXrecord
280
     1
270
     1
271
     1
  0
XRECORD
  5
1D
102
{ACAD_REACTORS
330
1A
102
}
330
1A
100
AcDbXrecord
280
     1
270
     1
271
     1
  0
XRECORD
  5
14
102
{ACAD_REACTORS
330
12
102
}
330
12
100
AcDbXrecord
280
     1
270
     1
271
     1
  0
XRECORD
  5
13
102
{ACAD_REACTORS
330
12
102
}
330
12
100
AcDbXrecord
280
     1
270
     1
271
     1
  0
XRECORD
  5
17
102
{ACAD_REACTORS
330
12
102
}
330
12
100
AcDbXrecord
280
     1
270
     1
271
     1
  0
XRECORD
  5
16
102
{ACAD_REACTORS
330
12
102
}
330
12
100
AcDbXrecord
280
     1
270
     1
271
     1
  0
XRECORD
  5
18
102
{ACAD_REACTORS
330
12
102
}
330
12
100
AcDbXrecord
280
     1
270
     1
271
     1
  0
XRECORD
  5
15
102
{ACAD_REACTORS
330
12
102
}
330
12
100
AcDbXrecord
280
     1
270
     1
271
     1
  0
XRECORD
  5
24
102
{ACAD_REACTORS
330
22
102
}
330
22
100
AcDbXrecord
280
     1
270
     1
271
     1
  0
XRECORD
  5
23
102
{ACAD_REACTORS
330
22
102
}
330
22
100
AcDbXrecord
280
     1
270
     1
271
     1
  0
XRECORD
  5
27
102
{ACAD_REACTORS
330
22
102
}
330
22
100
AcDbXrecord
280
     1
270
     1
271
     1
  0
XRECORD
  5
26
102
{ACAD_REACTORS
330
22
102
}
330
22
100
AcDbXrecord
280
     1
270
     1
271
     1
  0
XRECORD
  5
28
102
{ACAD_REACTORS
330
22
102
}
330
22
100
AcDbXrecord
280
     1
270
     1
271
     1
  0
XRECORD
  5
25
102
{ACAD_REACTORS
330
22
102
}
330
22
100
AcDbXrecord
280
     1
270
     1
271
     1
  0
CELLSTYLEMAP
  5
322
102
{ACAD_REACTORS
330
321
102
}
330
321
100
AcDbCellStyleMap
 90
        3
300
CELLSTYLE
  1
TABLEFORMAT_BEGIN
 90
        5
170
     1
 91
        0
 92
    32768
 62
   257
 93
        1
300
CONTENTFORMAT
  1
CONTENTFORMAT_BEGIN
 90
        0
 91
        0
 92
      512
 93
        0
300

 40
0.0
140
1.0
 94
        5
 62
     0
340
55
144
0.25
309
CONTENTFORMAT_END
171
     0
 94
        0
309
TABLEFORMAT_END
  1
CELLSTYLE_BEGIN
 90
        1
 91
        1
300
_TITLE
309
CELLSTYLE_END
300
CELLSTYLE
  1
TABLEFORMAT_BEGIN
 90
        5
170
     1
 91
        0
 92
        0
 62
   257
 93
        1
300
CONTENTFORMAT
  1
CONTENTFORMAT_BEGIN
 90
        0
 91
        0
 92
      512
 93
        0
300

 40
0.0
140
1.0
 94
        5
 62
     0
340
55
144
0.18
309
CONTENTFORMAT_END
171
     0
 94
        0
309
TABLEFORMAT_END
  1
CELLSTYLE_BEGIN
 90
        2
 91
        1
300
_HEADER
309
CELLSTYLE_END
300
CELLSTYLE
  1
TABLEFORMAT_BEGIN
 90
        5
170
     1
 91
        0
 92
        0
 62
   257
 93
        1
300
CONTENTFORMAT
  1
CONTENTFORMAT_BEGIN
 90
        0
 91
        0
 92
      512
 93
        0
300

 40
0.0
140
1.0
 94
        2
 62
     0
340
55
144
0.18
309
CONTENTFORMAT_END
171
     0
 94
        0
309
TABLEFORMAT_END
  1
CELLSTYLE_BEGIN
 90
        3
 91
        2
300
_DATA
309
CELLSTYLE_END
  0
ENDSEC
  0
EOF
