  0
SECTION
  2
HEADER
  9
$ACADVER
  1
AC1032
  9
$ACADMAINTVER
 90
      329
  9
$DWGCODEPAGE
  3
ANSI_1252
  9
$REQUIREDVERSIONS
160
                 0
  9
$INSBASE
 10
0.0
 20
0.0
 30
0.0
  9
$EXTMIN
 10
1.000000000000000E+20
 20
1.000000000000000E+20
 30
1.000000000000000E+20
  9
$EXTMAX
 10
-1.000000000000000E+20
 20
-1.000000000000000E+20
 30
-1.000000000000000E+20
  9
$LIMMIN
 10
0.0
 20
0.0
  9
$LIMMAX
 10
12.0
 20
9.0
  9
$ORTHOMODE
 70
     0
  9
$REGENMODE
 70
     1
  9
$FILLMODE
 70
     1
  9
$QTEXTMODE
 70
     0
  9
$MIRRTEXT
 70
     0
  9
$LTSCALE
 40
1.0
  9
$ATTMODE
 70
     1
  9
$TEXTSIZE
 40
0.2
  9
$TRACEWID
 40
0.05
  9
$TEXTSTYLE
  7
Standard
  9
$CLAYER
  8
0
  9
$CELTYPE
  6
ByLayer
  9
$CECOLOR
 62
   256
  9
$CELTSCALE
 40
1.0
  9
$DISPSILH
 70
     0
  9
$DIMSCALE
 40
1.0
  9
$DIMASZ
 40
0.18
  9
$DIMEXO
 40
0.0625
  9
$DIMDLI
 40
0.38
  9
$DIMRND
 40
0.0
  9
$DIMDLE
 40
0.0
  9
$DIMEXE
 40
0.18
  9
$DIMTP
 40
0.0
  9
$DIMTM
 40
0.0
  9
$DIMTXT
 40
0.18
  9
$DIMCEN
 40
0.09
  9
$DIMTSZ
 40
0.0
  9
$DIMTOL
 70
     0
  9
$DIMLIM
 70
     0
  9
$DIMTIH
 70
     1
  9
$DIMTOH
 70
     1
  9
$DIMSE1
 70
     0
  9
$DIMSE2
 70
     0
  9
$DIMTAD
 70
     0
  9
$DIMZIN
 70
     0
  9
$DIMBLK
  1

  9
$DIMASO
 70
     1
  9
$DIMSHO
 70
     1
  9
$DIMPOST
  1

  9
$DIMAPOST
  1

  9
$DIMALT
 70
     0
  9
$DIMALTD
 70
     2
  9
$DIMALTF
 40
25.4
  9
$DIMLFAC
 40
1.0
  9
$DIMTOFL
 70
     0
  9
$DIMTVP
 40
0.0
  9
$DIMTIX
 70
     0
  9
$DIMSOXD
 70
     0
  9
$DIMSAH
 70
     0
  9
$DIMBLK1
  1

  9
$DIMBLK2
  1

  9
$DIMSTYLE
  2
Standard
  9
$DIMCLRD
 70
     0
  9
$DIMCLRE
 70
     0
  9
$DIMCLRT
 70
     0
  9
$DIMTFAC
 40
1.0
  9
$DIMGAP
 40
0.09
  9
$DIMJUST
 70
     0
  9
$DIMSD1
 70
     0
  9
$DIMSD2
 70
     0
  9
$DIMTOLJ
 70
     1
  9
$DIMTZIN
 70
     0
  9
$DIMALTZ
 70
     0
  9
$DIMALTTZ
 70
     0
  9
$DIMUPT
 70
     0
  9
$DIMDEC
 70
     4
  9
$DIMTDEC
 70
     4
  9
$DIMALTU
 70
     2
  9
$DIMALTTD
 70
     2
  9
$DIMTXSTY
  7
Standard
  9
$DIMAUNIT
 70
     0
  9
$DIMADEC
 70
     0
  9
$DIMALTRND
 40
0.0
  9
$DIMAZIN
 70
     0
  9
$DIMDSEP
 70
    46
  9
$DIMATFIT
 70
     3
  9
$DIMFRAC
 70
     0
  9
$DIMLDRBLK
  1

  9
$DIMLUNIT
 70
     2
  9
$DIMLWD
 70
    -2
  9
$DIMLWE
 70
    -2
  9
$DIMTMOVE
 70
     0
  9
$DIMFXL
 40
1.0
  9
$DIMFXLON
 70
     0
  9
$DIMJOGANG
 40
0.7853981633974483
  9
$DIMTFILL
 70
     0
  9
$DIMTFILLCLR
 70
     0
  9
$DIMARCSYM
 70
     0
  9
$DIMLTYPE
  6

  9
$DIMLTEX1
  6

  9
$DIMLTEX2
  6

  9
$DIMTXTDIRECTION
 70
     0
  9
$LUNITS
 70
     2
  9
$LUPREC
 70
     4
  9
$SKETCHINC
 40
0.1
  9
$FILLETRAD
 40
0.0
  9
$AUNITS
 70
     0
  9
$AUPREC
 70
     0
  9
$MENU
  1
.
  9
$ELEVATION
 40
0.0
  9
$PELEVATION
 40
0.0
  9
$THICKNESS
 40
0.0
  9
$LIMCHECK
 70
     0
  9
$CHAMFERA
 40
0.0
  9
$CHAMFERB
 40
0.0
  9
$CHAMFERC
 40
0.0
  9
$CHAMFERD
 40
0.0
  9
$SKPOLY
 70
     0
  9
$TDCREATE
 40
2460759.625104167
  9
$TDUCREATE
 40
2460759.625104167
  9
$TDUPDATE
 40
2460759.625104167
  9
$TDUUPDATE
 40
2460759.625104167
  9
$TDINDWG
 40
0.0000000000
  9
$TDUSRTIMER
 40
0.0000000000
  9
$USRTIMER
 70
     1
  9
$ANGBASE
 50
0.0
  9
$ANGDIR
 70
     0
  9
$PDMODE
 70
     0
  9
$PDSIZE
 40
0.0
  9
$PLINEWID
 40
0.0
  9
$SPLFRAME
 70
     0
  9
$SPLINETYPE
 70
     6
  9
$SPLINESEGS
 70
     8
  9
$HANDSEED
  5
3DC
  9
$SURFTAB1
 70
     6
  9
$SURFTAB2
 70
     6
  9
$SURFTYPE
 70
     6
  9
$SURFU
 70
     6
  9
$SURFV
 70
     6
  9
$UCSBASE
  2

  9
$UCSNAME
  2

  9
$UCSORG
 10
0.0
 20
0.0
 30
0.0
  9
$UCSXDIR
 10
1.0
 20
0.0
 30
0.0
  9
$UCSYDIR
 10
0.0
 20
1.0
 30
0.0
  9
$UCSORTHOREF
  2

  9
$UCSORTHOVIEW
 70
     0
  9
$UCSORGTOP
 10
0.0
 20
0.0
 30
0.0
  9
$UCSORGBOTTOM
 10
0.0
 20
0.0
 30
0.0
  9
$UCSORGLEFT
 10
0.0
 20
0.0
 30
0.0
  9
$UCSORGRIGHT
 10
0.0
 20
0.0
 30
0.0
  9
$UCSORGFRONT
 10
0.0
 20
0.0
 30
0.0
  9
$UCSORGBACK
 10
0.0
 20
0.0
 30
0.0
  9
$PUCSBASE
  2

  9
$PUCSNAME
  2

  9
$PUCSORG
 10
0.0
 20
0.0
 30
0.0
  9
$PUCSXDIR
 10
1.0
 20
0.0
 30
0.0
  9
$PUCSYDIR
 10
0.0
 20
1.0
 30
0.0
  9
$PUCSORTHOREF
  2

  9
$PUCSORTHOVIEW
 70
     0
  9
$PUCSORGTOP
 10
0.0
 20
0.0
 30
0.0
  9
$PUCSORGBOTTOM
 10
0.0
 20
0.0
 30
0.0
  9
$PUCSORGLEFT
 10
0.0
 20
0.0
 30
0.0
  9
$PUCSORGRIGHT
 10
0.0
 20
0.0
 30
0.0
  9
$PUCSORGFRONT
 10
0.0
 20
0.0
 30
0.0
  9
$PUCSORGBACK
 10
0.0
 20
0.0
 30
0.0
  9
$USERI1
 70
     0
  9
$USERI2
 70
     0
  9
$USERI3
 70
     0
  9
$USERI4
 70
     0
  9
$USERI5
 70
     0
  9
$USERR1
 40
0.0
  9
$USERR2
 40
0.0
  9
$USERR3
 40
0.0
  9
$USERR4
 40
0.0
  9
$USERR5
 40
0.0
  9
$WORLDVIEW
 70
     1
  9
$SHADEDGE
 70
     3
  9
$SHADEDIF
 70
    70
  9
$TILEMODE
 70
     1
  9
$MAXACTVP
 70
    64
  9
$PINSBASE
 10
0.0
 20
0.0
 30
0.0
  9
$PLIMCHECK
 70
     0
  9
$PEXTMIN
 10
1.000000000000000E+20
 20
1.000000000000000E+20
 30
1.000000000000000E+20
  9
$PEXTMAX
 10
-1.000000000000000E+20
 20
-1.000000000000000E+20
 30
-1.000000000000000E+20
  9
$PLIMMIN
 10
0.0
 20
0.0
  9
$PLIMMAX
 10
12.0
 20
9.0
  9
$UNITMODE
 70
     0
  9
$VISRETAIN
 70
     1
  9
$PLINEGEN
 70
     0
  9
$PSLTSCALE
 70
     1
  9
$TREEDEPTH
 70
  3020
  9
$CMLSTYLE
  2
Standard
  9
$CMLJUST
 70
     0
  9
$CMLSCALE
 40
1.0
  9
$PROXYGRAPHICS
 70
     1
  9
$MEASUREMENT
 70
     0
  9
$CELWEIGHT
370
    -1
  9
$ENDCAPS
280
     0
  9
$JOINSTYLE
280
     0
  9
$LWDISPLAY
290
     1
  9
$INSUNITS
 70
     4
  9
$HYPERLINKBASE
  1

  9
$STYLESHEET
  1

  9
$XEDIT
290
     1
  9
$CEPSNTYPE
380
     0
  9
$PSTYLEMODE
290
     1
  9
$FINGERPRINTGUID
  2
{EC0FEC5C-C107-FE45-AE81-27671FB10B7A}
  9
$VERSIONGUID
  2
{E61B4540-C1A6-7C4B-B031-9D2C18721306}
  9
$EXTNAMES
290
     1
  9
$PSVPSCALE
 40
0.0
  9
$OLESTARTUP
290
     0
  9
$SORTENTS
280
   127
  9
$INDEXCTL
280
     0
  9
$HIDETEXT
280
     1
  9
$XCLIPFRAME
280
     2
  9
$HALOGAP
280
     0
  9
$OBSCOLOR
 70
   257
  9
$OBSLTYPE
280
     0
  9
$INTERSECTIONDISPLAY
280
     0
  9
$INTERSECTIONCOLOR
 70
   257
  9
$DIMASSOC
280
     2
  9
$PROJECTNAME
  1

  9
$CAMERADISPLAY
290
     0
  9
$LENSLENGTH
 40
50.0
  9
$CAMERAHEIGHT
 40
0.0
  9
$STEPSPERSEC
 40
2.0
  9
$STEPSIZE
 40
6.0
  9
$3DDWFPREC
 40
2.0
  9
$PSOLWIDTH
 40
0.25
  9
$PSOLHEIGHT
 40
4.0
  9
$LOFTANG1
 40
1.570796326794896
  9
$LOFTANG2
 40
1.570796326794896
  9
$LOFTMAG1
 40
0.0
  9
$LOFTMAG2
 40
0.0
  9
$LOFTPARAM
 70
     7
  9
$LOFTNORMALS
280
     1
  9
$LATITUDE
 40
37.795
  9
$LONGITUDE
 40
-122.394
  9
$NORTHDIRECTION
 40
0.0
  9
$TIMEZONE
 70
 -8000
  9
$LIGHTGLYPHDISPLAY
280
     1
  9
$TILEMODELIGHTSYNCH
280
     1
  9
$CMATERIAL
347
11
  9
$SOLIDHIST
280
     0
  9
$SHOWHIST
280
     1
  9
$DWFFRAME
280
     2
  9
$DGNFRAME
280
     0
  9
$REALWORLDSCALE
290
     1
  9
$INTERFERECOLOR
 62
     1
  9
$INTERFEREOBJVS
345
33
  9
$INTERFEREVPVS
346
30
  9
$CSHADOW
280
     0
  9
$SHADOWPLANELOCATION
 40
0.0
  0
ENDSEC
  0
SECTION
  2
CLASSES
  0
CLASS
  1
ACDBDICTIONARYWDFLT
  2
AcDbDictionaryWithDefault
  3
ObjectDBX Classes
 90
        0
 91
        1
280
     0
281
     0
  0
CLASS
  1
MATERIAL
  2
AcDbMaterial
  3
ObjectDBX Classes
 90
     1153
 91
        3
280
     0
281
     0
  0
CLASS
  1
VISUALSTYLE
  2
AcDbVisualStyle
  3
ObjectDBX Classes
 90
     4095
 91
       24
280
     0
281
     0
  0
CLASS
  1
SCALE
  2
AcDbScale
  3
ObjectDBX Classes
 90
     1153
 91
       17
280
     0
281
     0
  0
CLASS
  1
TABLESTYLE
  2
AcDbTableStyle
  3
ObjectDBX Classes
 90
     4095
 91
        1
280
     0
281
     0
  0
CLASS
  1
MLEADERSTYLE
  2
AcDbMLeaderStyle
  3
ACDB_MLEADERSTYLE_CLASS
 90
     4095
 91
        1
280
     0
281
     0
  0
CLASS
  1
ACDBSECTIONVIEWSTYLE
  2
AcDbSectionViewStyle
  3
ObjectDBX Classes
 90
     1025
 91
        1
280
     0
281
     0
  0
CLASS
  1
ACDBDETAILVIEWSTYLE
  2
AcDbDetailViewStyle
  3
ObjectDBX Classes
 90
     1025
 91
        1
280
     0
281
     0
  0
CLASS
  1
DICTIONARYVAR
  2
AcDbDictionaryVar
  3
ObjectDBX Classes
 90
        0
 91
        5
280
     0
281
     0
  0
CLASS
  1
CELLSTYLEMAP
  2
AcDbCellStyleMap
  3
ObjectDBX Classes
 90
     1152
 91
        1
280
     0
281
     0
  0
ENDSEC
  0
SECTION
  2
TABLES
  0
TABLE
  2
VPORT
  5
8
330
0
100
AcDbSymbolTable
 70
     1
  0
VPORT
  5
57
330
8
100
AcDbSymbolTableRecord
100
AcDbViewportTableRecord
  2
*Active
 70
     0
 10
0.0
 20
0.0
 11
1.0
 21
1.0
 12
0.0
 22
0.0
 13
0.0
 23
0.0
 14
1.0
 24
1.0
 15
0.0
 25
0.0
 16
0.0
 26
0.0
 36
1.0
 17
374.9999999062495
 27
73.85453678144395
 37
0.0
 40
155.9090782227228
 41
4.906705937392007
 42
50.0
 43
0.0
 44
0.0
 50
0.0
 51
0.0
 71
     0
 72
   100
 73
     1
 74
     1
 75
     0
 76
     0
 77
     0
 78
     0
281
     0
 65
     1
110
0.0
120
0.0
130
0.0
111
1.0
121
0.0
131
0.0
112
0.0
122
1.0
132
0.0
 79
     0
146
0.0
 60
     3
 61
     5
292
     1
282
     1
141
0.0
142
0.0
 63
   250
421
  3355443
  0
ENDTAB
  0
TABLE
  2
LTYPE
  5
5
330
0
100
AcDbSymbolTable
 70
     1
  0
LTYPE
  5
5B
330
5
100
AcDbSymbolTableRecord
100
AcDbLinetypeTableRecord
  2
ByBlock
 70
     0
  3

 72
    65
 73
     0
 40
0.0
  0
LTYPE
  5
5C
330
5
100
AcDbSymbolTableRecord
100
AcDbLinetypeTableRecord
  2
ByLayer
 70
     0
  3

 72
    65
 73
     0
 40
0.0
  0
LTYPE
  5
5D
330
5
100
AcDbSymbolTableRecord
100
AcDbLinetypeTableRecord
  2
Continuous
 70
     0
  3
Solid line
 72
    65
 73
     0
 40
0.0
  0
ENDTAB
  0
TABLE
  2
LAYER
  5
2
330
0
100
AcDbSymbolTable
 70
     1
  0
LAYER
  5
54
330
2
100
AcDbSymbolTableRecord
100
AcDbLayerTableRecord
  2
0
 70
     0
 62
     7
  6
Continuous
370
     0
390
F
347
21
348
0
  0
ENDTAB
  0
TABLE
  2
STYLE
  5
3
330
0
100
AcDbSymbolTable
 70
     2
  0
STYLE
  5
55
330
3
100
AcDbSymbolTableRecord
100
AcDbTextStyleTableRecord
  2
Standard
 70
     0
 40
0.0
 41
1.0
 50
0.0
 71
     0
 42
0.2
  3
txt
  4

  0
STYLE
  5
5A
330
3
100
AcDbSymbolTableRecord
100
AcDbTextStyleTableRecord
  2
Annotative
 70
     0
 40
0.0
 41
1.0
 50
0.0
 71
     0
 42
0.2
  3
txt
  4

1001
AcadAnnotative
1000
AnnotativeData
1002
{
1070
     1
1070
     1
1002
}
  0
ENDTAB
  0
TABLE
  2
VIEW
  5
6
330
0
100
AcDbSymbolTable
 70
     0
  0
ENDTAB
  0
TABLE
  2
UCS
  5
7
330
0
100
AcDbSymbolTable
 70
     0
  0
ENDTAB
  0
TABLE
  2
APPID
  5
9
330
0
100
AcDbSymbolTable
 70
     2
  0
APPID
  5
56
330
9
100
AcDbSymbolTableRecord
100
AcDbRegAppTableRecord
  2
ACAD
 70
     0
  0
APPID
  5
5E
330
9
100
AcDbSymbolTableRecord
100
AcDbRegAppTableRecord
  2
AcadAnnotative
 70
     0
  0
ENDTAB
  0
TABLE
  2
DIMSTYLE
  5
A
330
0
100
AcDbSymbolTable
 70
     2
100
AcDbDimStyleTable
 71
     0
  0
DIMSTYLE
105
58
330
A
100
AcDbSymbolTableRecord
100
AcDbDimStyleTableRecord
  2
Standard
 70
     0
340
55
  0
DIMSTYLE
105
59
330
A
100
AcDbSymbolTableRecord
100
AcDbDimStyleTableRecord
  2
Annotative
 70
     0
340
55
1001
AcadAnnotative
1000
AnnotativeData
1002
{
1070
     1
1070
     1
1002
}
  0
ENDTAB
  0
TABLE
  2
BLOCK_RECORD
  5
1
330
0
100
AcDbSymbolTable
 70
     5
  0
BLOCK_RECORD
  5
70
330
1
100
AcDbSymbolTableRecord
100
AcDbBlockTableRecord
  2
*Model_Space
340
73
 70
     0
280
     1
281
     0
  0
BLOCK_RECORD
  5
6C
330
1
100
AcDbSymbolTableRecord
100
AcDbBlockTableRecord
  2
*Paper_Space
340
6F
 70
     0
280
     1
281
     0
  0
BLOCK_RECORD
  5
74
330
1
100
AcDbSymbolTableRecord
100
AcDbBlockTableRecord
  2
*Paper_Space0
340
77
 70
     0
280
     1
281
     0
  0
BLOCK_RECORD
  5
78
330
1
100
AcDbSymbolTableRecord
100
AcDbBlockTableRecord
  2
Block_0
340
0
102
{BLKREFS
331
79
102
}
 70
     0
280
     1
281
     0
  0
BLOCK_RECORD
  5
80
330
1
100
AcDbSymbolTableRecord
100
AcDbBlockTableRecord
  2
Block_1
340
0
102
{BLKREFS
331
81
102
}
 70
     0
280
     1
281
     0
  0
BLOCK_RECORD
  5
285
330
1
100
AcDbSymbolTableRecord
100
AcDbBlockTableRecord
  2
Block_2
340
0
102
{BLKREFS
331
286
102
}
 70
     0
280
     1
281
     0
  0
BLOCK_RECORD
  5
28D
330
1
100
AcDbSymbolTableRecord
100
AcDbBlockTableRecord
  2
Block_3
340
0
102
{BLKREFS
331
28E
102
}
 70
     0
280
     1
281
     0
  0
ENDTAB
  0
ENDSEC
  0
SECTION
  2
BLOCKS
  0
BLOCK
  5
71
330
70
100
AcDbEntity
  8
0
100
AcDbBlockBegin
  2
*Model_Space
 70
     0
 10
0.0
 20
0.0
 30
0.0
  3
*Model_Space
  1

  0
ENDBLK
  5
72
330
70
100
AcDbEntity
  8
0
100
AcDbBlockEnd
  0
BLOCK
  5
6D
330
6C
100
AcDbEntity
 67
     1
  8
0
100
AcDbBlockBegin
  2
*Paper_Space
 70
     0
 10
0.0
 20
0.0
 30
0.0
  3
*Paper_Space
  1

  0
ENDBLK
  5
6E
330
6C
100
AcDbEntity
 67
     1
  8
0
100
AcDbBlockEnd
  0
BLOCK
  5
75
330
74
100
AcDbEntity
 67
     1
  8
0
100
AcDbBlockBegin
  2
*Paper_Space0
 70
     0
 10
0.0
 20
0.0
 30
0.0
  3
*Paper_Space0
  1

  0
ENDBLK
  5
76
330
74
100
AcDbEntity
 67
     1
  8
0
100
AcDbBlockEnd
  0
BLOCK
  5
7A
330
78
100
AcDbEntity
  8
0
100
AcDbBlockBegin
  2
Block_0
 70
     0
 10
0.0
 20
0.0
 30
0.0
  3
Block_0
  1

  0
LINE
  5
7C
330
78
100
AcDbEntity
  8
0
 62
    18
420
        0
370
    25
100
AcDbLine
 10
319.9109919518695
 20
-2.446481955185112
 30
0.0
 11
319.9109919518695
 21
-2.446481955185112
 31
0.0
  0
LINE
  5
7D
330
78
100
AcDbEntity
  8
0
 62
    18
420
        0
370
    25
100
AcDbLine
 10
319.9109919518695
 20
-2.446481955185112
 30
0.0
 11
319.9109919518695
 21
-2.446481955185112
 31
0.0
  0
LINE
  5
7E
330
78
100
AcDbEntity
  8
0
 62
    18
420
        0
370
    25
100
AcDbLine
 10
319.9109919518695
 20
-2.446481955185112
 30
0.0
 11
319.9109919518695
 21
-2.446481955185112
 31
0.0
  0
LINE
  5
7F
330
78
100
AcDbEntity
  8
0
 62
    18
420
        0
370
    25
100
AcDbLine
 10
319.9109919518695
 20
-2.446481955185112
 30
0.0
 11
319.9109919518695
 21
-2.446481955185112
 31
0.0
  0
ENDBLK
  5
7B
330
78
100
AcDbEntity
  8
0
100
AcDbBlockEnd
  0
BLOCK
  5
82
330
80
100
AcDbEntity
  8
0
100
AcDbBlockBegin
  2
Block_1
 70
     0
 10
0.0
 20
0.0
 30
0.0
  3
Block_1
  1

  0
LINE
  5
84
330
80
100
AcDbEntity
  8
0
 62
    18
420
        0
370
    25
100
AcDbLine
 10
319.9109919518695
 20
-2.446481955185112
 30
0.0
 11
319.9109919518695
 21
-2.446481955185112
 31
0.0
  0
LINE
  5
85
330
80
100
AcDbEntity
  8
0
 62
    18
420
        0
370
    25
100
AcDbLine
 10
319.9109919518695
 20
-2.446481955185112
 30
0.0
 11
319.9109919518695
 21
-2.446481955185112
 31
0.0
  0
LINE
  5
86
330
80
100
AcDbEntity
  8
0
 62
    18
420
        0
370
    25
100
AcDbLine
 10
319.9109919518695
 20
-2.446481955185112
 30
0.0
 11
319.9109919518695
 21
-2.446481955185112
 31
0.0
  0
LINE
  5
87
330
80
100
AcDbEntity
  8
0
 62
    18
420
        0
370
    25
100
AcDbLine
 10
319.9109919518695
 20
-2.446481955185112
 30
0.0
 11
319.9109919518695
 21
-2.446481955185112
 31
0.0
  0
ENDBLK
  5
83
330
80
100
AcDbEntity
  8
0
100
AcDbBlockEnd
  0
BLOCK
  5
287
330
285
100
AcDbEntity
  8
0
100
AcDbBlockBegin
  2
Block_2
 70
     0
 10
0.0
 20
0.0
 30
0.0
  3
Block_2
  1

  0
LINE
  5
289
330
285
100
AcDbEntity
  8
0
 62
    18
420
        0
370
     0
100
AcDbLine
 10
374.9213233209804
 20
139.4604155929712
 30
0.0
 11
381.8543226896557
 21
139.4604155929712
 31
0.0
  0
LINE
  5
28A
330
285
100
AcDbEntity
  8
0
 62
    18
420
        0
370
     0
100
AcDbLine
 10
374.9213233209801
 20
113.0060688094193
 30
0.0
 11
381.8543226896557
 21
113.0060688094193
 31
0.0
  0
LINE
  5
28B
330
285
100
AcDbEntity
  8
0
 62
    18
420
        0
370
     0
100
AcDbLine
 10
381.325235753985
 20
139.4604155929712
 30
0.0
 11
381.3252357539844
 21
113.0060688094193
 31
0.0
  0
MTEXT
  5
28C
330
285
100
AcDbEntity
  8
0
100
AcDbMText
 10
380.7899405905076
 20
124.8437147040215
 30
0.0
 40
0.2
 41
0.0
 46
0.0
 71
     7
 72
     1
  1
\C18;\c0;\FMyriad Pro|b0|i0|c1;\H1.851804;\W0.750000;100
 11
0.0000000000000036
 21
1.0
 31
0.0
 73
     1
 44
1.0
  0
ENDBLK
  5
288
330
285
100
AcDbEntity
  8
0
100
AcDbBlockEnd
  0
BLOCK
  5
28F
330
28D
100
AcDbEntity
  8
0
100
AcDbBlockBegin
  2
Block_3
 70
     0
 10
0.0
 20
0.0
 30
0.0
  3
Block_3
  1

  0
LINE
  5
291
330
28D
100
AcDbEntity
  8
0
 62
    18
420
        0
370
     0
100
AcDbLine
 10
372.8446570984711
 20
98.05936287671281
 30
0.0
 11
381.8543226896557
 21
98.05936287671281
 31
0.0
  0
LINE
  5
292
330
28D
100
AcDbEntity
  8
0
 62
    18
420
        0
370
     0
100
AcDbLine
 10
372.8446570984711
 20
70.01775528614797
 30
0.0
 11
381.8543226896557
 21
70.01775528614797
 31
0.0
  0
LINE
  5
293
330
28D
100
AcDbEntity
  8
0
 62
    18
420
        0
370
     0
100
AcDbLine
 10
381.325235753985
 20
98.05936287671281
 30
0.0
 11
381.3252357539844
 21
70.01775528614797
 31
0.0
  0
MTEXT
  5
294
330
28D
100
AcDbEntity
  8
0
100
AcDbMText
 10
380.7899405904922
 20
81.85822480593204
 30
0.0
 40
0.2
 41
0.0
 46
0.0
 71
     7
 72
     1
  1
\C18;\c0;\FMyriad Pro|b0|i0|c1;\H1.851804;\W0.750000;106
 11
-0.0000000000000026
 21
1.0
 31
0.0
 73
     1
 44
1.0
  0
ENDBLK
  5
290
330
28D
100
AcDbEntity
  8
0
100
AcDbBlockEnd
  0
ENDSEC
  0
SECTION
  2
ENTITIES
  0
INSERT
  5
79
330
70
100
AcDbEntity
  8
0
100
AcDbBlockReference
  2
Block_0
 10
0.0
 20
0.0
 30
0.0
  0
INSERT
  5
81
330
70
100
AcDbEntity
  8
0
100
AcDbBlockReference
  2
Block_1
 10
0.0
 20
0.0
 30
0.0
  0
LINE
  5
88
330
70
100
AcDbEntity
  8
0
 62
    18
420
        0
370
    70
100
AcDbLine
 10
330.4927306652902
 20
2.31530046585392
 30
0.0
 11
330.4927306652902
 21
149.9305555180729
 31
0.0
  0
LINE
  5
89
330
70
100
AcDbEntity
  8
0
 62
    18
420
        0
370
    70
100
AcDbLine
 10
421.550210349921
 20
2.31530046585392
 30
0.0
 11
330.4927306652902
 21
2.31530046585392
 31
0.0
  0
LINE
  5
8A
330
70
100
AcDbEntity
  8
0
 62
    18
420
        0
370
    25
100
AcDbLine
 10
408.3230369581452
 20
6.283452483386661
 30
0.0
 11
421.5205481338103
 21
6.283452483386661
 31
0.0
  0
LINE
  5
8B
330
70
100
AcDbEntity
  8
0
 62
    18
420
        0
370
    25
100
AcDbLine
 10
330.4927306652902
 20
20.19843889153514
 30
0.0
 11
421.550210349921
 21
20.19843889153514
 31
0.0
  0
LINE
  5
8C
330
70
100
AcDbEntity
  8
0
 62
    18
420
        0
370
    25
100
AcDbLine
 10
408.3230369581452
 20
10.2516045009194
 30
0.0
 11
421.5205481338103
 21
10.2516045009194
 31
0.0
  0
LINE
  5
8D
330
70
100
AcDbEntity
  8
0
 62
    18
420
        0
370
    25
100
AcDbLine
 10
330.4927306652902
 20
20.19843889153514
 30
0.0
 11
330.4927306652902
 21
2.31530046585392
 31
0.0
  0
LINE
  5
8E
330
70
100
AcDbEntity
  8
0
 62
    18
420
        0
370
    25
100
AcDbLine
 10
330.4927306652902
 20
14.21975651845214
 30
0.0
 11
421.550210349921
 21
14.21975651845214
 31
0.0
  0
LINE
  5
8F
330
70
100
AcDbEntity
  8
0
 62
    18
420
        0
370
    25
100
AcDbLine
 10
364.2199215246933
 20
20.19843889153514
 30
0.0
 11
364.2199215246933
 21
14.21975651845214
 31
0.0
  0
LINE
  5
90
330
70
100
AcDbEntity
  8
0
 62
    18
420
        0
370
    70
100
AcDbLine
 10
421.550210349921
 20
2.31530046585392
 30
0.0
 11
421.550210349921
 21
149.9305555180729
 31
0.0
  0
LINE
  5
91
330
70
100
AcDbEntity
  8
0
 62
    18
420
        0
370
    70
100
AcDbLine
 10
421.550210349921
 20
149.9305555180729
 30
0.0
 11
330.4927306652902
 21
149.9305555180729
 31
0.0
  0
LINE
  5
92
330
70
100
AcDbEntity
  8
0
 62
    18
420
        0
370
    25
100
AcDbLine
 10
408.3230369581452
 20
14.21975651845214
 30
0.0
 11
408.3230369581452
 21
2.31530046585392
 31
0.0
  0
MTEXT
  5
93
330
70
100
AcDbEntity
  8
0
100
AcDbMText
 10
329.9367838564452
 20
4.297412108310272
 30
0.0
 40
0.2
 41
0.0
 46
0.0
 71
     7
 72
     1
  1
\C18;\c0;\FMyriad Pro|b0|i0|c1;\H1.481443;\W0.605000;This work  is copyright and no part may be reproduced, by any process, nor may any other exclusive right be exercised without the permission of ASSA ABLOY.
 11
-0.0000000000000033
 21
1.0
 31
0.0
 73
     1
 44
1.0
  0
MTEXT
  5
94
330
70
100
AcDbEntity
  8
0
100
AcDbMText
 10
364.4647042952771
 20
18.55864325165374
 30
0.0
 40
0.2
 41
0.0
 46
0.0
 71
     7
 72
     1
  1
\C18;\c0;\FMyriad Pro|b0|i0|c1;\H1.119901;\W0.605000;Alternative ID:
 73
     1
 44
1.0
  0
MTEXT
  5
95
330
70
100
AcDbEntity
  8
0
100
AcDbMText
 10
331.0430578463842
 20
18.55864325165374
 30
0.0
 40
0.2
 41
0.0
 46
0.0
 71
     7
 72
     1
  1
\C18;\c0;\FMyriad Pro|b0|i0|c1;\H1.119901;\W0.605000;Document ID:
 73
     1
 44
1.0
  0
MTEXT
  5
96
330
70
100
AcDbEntity
  8
0
100
AcDbMText
 10
354.1787257686602
 20
5.405689569287446
 30
0.0
 40
0.2
 41
0.0
 46
0.0
 71
     7
 72
     1
  1
\C18;\c0;\FMyriad Pro|b0|i0|c1;\H0.839926;\W0.605000;P.C.HENDERSON LIMITED, DURHAM ROAD, BOWBURN,
 73
     1
 44
1.0
  0
MTEXT
  5
97
330
70
100
AcDbEntity
  8
0
100
AcDbMText
 10
355.6500399230233
 20
4.285788948259201
 30
0.0
 40
0.2
 41
0.0
 46
0.0
 71
     7
 72
     1
  1
\C18;\c0;\FMyriad Pro|b0|i0|c1;\H0.839926;\W0.605000;COUNTY DURHAM DH6 5NG UNITED KINGDOM
 73
     1
 44
1.0
  0
MTEXT
  5
98
330
70
100
AcDbEntity
  8
0
100
AcDbMText
 10
359.0250492469951
 20
3.165888327230955
 30
0.0
 40
0.2
 41
0.0
 46
0.0
 71
     7
 72
     1
  1
\C18;\c0;\FMyriad Pro|b0|i0|c1;\H0.839926;\W0.605000;TELEPHONE: (0191) 3770701
 73
     1
 44
1.0
  0
MTEXT
  5
99
330
70
100
AcDbEntity
  8
0
100
AcDbMText
 10
408.7695365731549
 20
5.223215915115874
 30
0.0
 40
0.2
 41
0.0
 46
0.0
 71
     7
 72
     1
  1
\C18;\c0;\FMyriad Pro|b0|i0|c1;\H0.793630;\W0.605000;Revision:
 73
     1
 44
1.0
  0
MTEXT
  5
9A
330
70
100
AcDbEntity
  8
0
100
AcDbMText
 10
408.7695365731549
 20
13.15952055919995
 30
0.0
 40
0.2
 41
0.0
 46
0.0
 71
     7
 72
     1
  1
\C18;\c0;\FMyriad Pro|b0|i0|c1;\H0.793630;\W0.605000;Drawing Size:
 73
     1
 44
1.0
  0
MTEXT
  5
9B
330
70
100
AcDbEntity
  8
0
100
AcDbMText
 10
408.7695365731549
 20
9.191368068940358
 30
0.0
 40
0.2
 41
0.0
 46
0.0
 71
     7
 72
     1
  1
\C18;\c0;\FMyriad Pro|b0|i0|c1;\H0.793630;\W0.605000;Scale:
 73
     1
 44
1.0
  0
MTEXT
  5
9C
330
70
100
AcDbEntity
  8
0
100
AcDbMText
 10
414.2387117833761
 20
10.86220371716529
 30
0.0
 40
0.2
 41
0.0
 46
0.0
 71
     7
 72
     1
  1
\C18;\c0;\FMyriad Pro|b0|i0|c1;\H1.322717;\W0.605000;A4
 73
     1
 44
1.0
  0
MTEXT
  5
9D
330
70
100
AcDbEntity
  8
0
100
AcDbMText
 10
414.6156913568495
 20
3.098884584393905
 30
0.0
 40
0.2
 41
0.0
 46
0.0
 71
     7
 72
     1
  1
\C18;\c0;\FMyriad Pro|b0|i0|c1;\H1.322717;\W0.605000;A
 73
     1
 44
1.0
  0
MTEXT
  5
9E
330
70
100
AcDbEntity
  8
0
100
AcDbMText
 10
407.4100588309817
 20
-0.0000000000006417
 30
0.0
 40
0.2
 41
0.0
 46
0.0
 71
     7
 72
     1
  1
\C18;\c0;\FMyriad Pro|b0|i0|c1;\H1.851804;\W0.687500;SHEET 1 OF 1
 73
     1
 44
1.0
  0
MTEXT
  5
9F
330
70
100
AcDbEntity
  8
0
100
AcDbMText
 10
414.0802804547481
 20
7.11112117589556
 30
0.0
 40
0.2
 41
0.0
 46
0.0
 71
     7
 72
     1
  1
\C18;\c0;\FMyriad Pro|b0|i0|c1;\H1.322717;\W0.605000;1:2
 73
     1
 44
1.0
  0
MTEXT
  5
A0
330
70
100
AcDbEntity
  8
0
100
AcDbMText
 10
341.4384612183513
 20
15.67401231797752
 30
0.0
 40
0.2
 41
0.0
 46
0.0
 71
     7
 72
     1
  1
\C18;\c0;\FMyriad Pro|b0|i0|c1;\H1.851804;\W0.750000;SFR5 HINGE SET
 73
     1
 44
1.0
  0
MTEXT
  5
A1
330
70
100
AcDbEntity
  8
0
100
AcDbMText
 10
375.3898341617949
 20
15.67401231797752
 30
0.0
 40
0.2
 41
0.0
 46
0.0
 71
     7
 72
     1
  1
\C18;\c0;\FMyriad Pro|b0|i0|c1;\H1.851804;\W0.750000;260305
 73
     1
 44
1.0
  0
LINE
  5
A2
330
70
100
AcDbEntity
  8
0
 62
    18
420
        0
370
    25
100
AcDbLine
 10
342.1776957139928
 20
70.81138568965491
 30
0.0
 11
342.1776957139928
 21
76.1207730891135
 31
0.0
  0
LINE
  5
A3
330
70
100
AcDbEntity
  8
0
 62
    18
420
        0
370
    25
100
AcDbLine
 10
338.0243632689751
 20
76.1207730891135
 30
0.0
 11
338.0243632689751
 21
70.81138568965491
 31
0.0
  0
LINE
  5
A4
330
70
100
AcDbEntity
  8
0
 62
    18
420
        0
370
    25
100
AcDbLine
 10
342.1776957139928
 20
81.38386538170109
 30
0.0
 11
342.1776957139928
 21
86.69325278116001
 31
0.0
  0
LINE
  5
A5
330
70
100
AcDbEntity
  8
0
 62
    18
420
        0
370
    25
100
AcDbLine
 10
338.0243632689751
 20
86.69325278116001
 30
0.0
 11
338.0243632689751
 21
81.38386538170109
 31
0.0
  0
LINE
  5
A6
330
70
100
AcDbEntity
  8
0
 62
    18
420
        0
370
    25
100
AcDbLine
 10
342.1776957139928
 20
91.9563450737476
 30
0.0
 11
342.1776957139928
 21
97.26573247320652
 31
0.0
  0
LINE
  5
A7
330
70
100
AcDbEntity
  8
0
 62
    18
420
        0
370
    25
100
AcDbLine
 10
338.0243632689751
 20
97.26573247320652
 30
0.0
 11
338.0243632689751
 21
91.9563450737476
 31
0.0
  0
LINE
  5
A8
330
70
100
AcDbEntity
  8
0
 62
    18
420
        0
370
    25
100
AcDbLine
 10
342.1776957139928
 20
113.00606880942
 30
0.0
 11
342.1776957139928
 21
118.3154562088786
 31
0.0
  0
LINE
  5
A9
330
70
100
AcDbEntity
  8
0
 62
    18
420
        0
370
    25
100
AcDbLine
 10
338.0243632689751
 20
118.3154562088786
 30
0.0
 11
338.0243632689751
 21
113.00606880942
 31
0.0
  0
LINE
  5
AA
330
70
100
AcDbEntity
  8
0
 62
    18
420
        0
370
    25
100
AcDbLine
 10
342.1776957139928
 20
123.5785485014661
 30
0.0
 11
342.1776957139928
 21
128.887935900925
 31
0.0
  0
LINE
  5
AB
330
70
100
AcDbEntity
  8
0
 62
    18
420
        0
370
    25
100
AcDbLine
 10
338.0243632689751
 20
128.887935900925
 30
0.0
 11
338.0243632689751
 21
123.5785485014661
 31
0.0
  0
LINE
  5
AC
330
70
100
AcDbEntity
  8
0
 62
    18
420
        0
370
    25
100
AcDbLine
 10
342.1776957139928
 20
134.1510281935127
 30
0.0
 11
342.1776957139928
 21
139.4604155929716
 31
0.0
  0
LINE
  5
AD
330
70
100
AcDbEntity
  8
0
 62
    18
420
        0
370
    25
100
AcDbLine
 10
338.0243632689751
 20
139.4604155929716
 30
0.0
 11
338.0243632689751
 21
134.1510281935127
 31
0.0
  0
LINE
  5
AE
330
70
100
AcDbEntity
  8
0
 62
    18
420
        0
370
    25
100
AcDbLine
 10
342.1776957139928
 20
28.61670256988984
 30
0.0
 11
342.1776957139928
 21
33.92608996934843
 31
0.0
  0
LINE
  5
AF
330
70
100
AcDbEntity
  8
0
 62
    18
420
        0
370
    25
100
AcDbLine
 10
338.0243632689751
 20
33.92608996934843
 30
0.0
 11
338.0243632689751
 21
28.61670256988984
 31
0.0
  0
LINE
  5
B0
330
70
100
AcDbEntity
  8
0
 62
    18
420
        0
370
    25
100
AcDbLine
 10
342.1776957139928
 20
39.18918226193635
 30
0.0
 11
342.1776957139928
 21
44.49856966139494
 31
0.0
  0
LINE
  5
B1
330
70
100
AcDbEntity
  8
0
 62
    18
420
        0
370
    25
100
AcDbLine
 10
338.0243632689751
 20
44.49856966139494
 30
0.0
 11
338.0243632689751
 21
39.18918226193635
 31
0.0
  0
LINE
  5
B2
330
70
100
AcDbEntity
  8
0
 62
    18
420
        0
370
    25
100
AcDbLine
 10
342.1776957139928
 20
49.76166195398285
 30
0.0
 11
342.1776957139928
 21
55.07104935344145
 31
0.0
  0
LINE
  5
B3
330
70
100
AcDbEntity
  8
0
 62
    18
420
        0
370
    25
100
AcDbLine
 10
338.0243632689751
 20
55.07104935344145
 30
0.0
 11
338.0243632689751
 21
49.76166195398285
 31
0.0
  0
LINE
  5
B4
330
70
100
AcDbEntity
  8
0
 62
    18
420
        0
370
    25
100
AcDbLine
 10
338.0243632689751
 20
39.18918226193635
 30
0.0
 11
338.0243632689751
 21
33.92608996934843
 31
0.0
  0
LINE
  5
B5
330
70
100
AcDbEntity
  8
0
 62
    18
420
        0
370
    25
100
AcDbLine
 10
342.1776957139928
 20
33.92608996934843
 30
0.0
 11
342.1776957139928
 21
39.18918226193635
 31
0.0
  0
LINE
  5
B6
330
70
100
AcDbEntity
  8
0
 62
    18
420
        0
370
    25
100
AcDbLine
 10
338.0243632689751
 20
49.76166195398285
 30
0.0
 11
338.0243632689751
 21
44.49856966139494
 31
0.0
  0
LINE
  5
B7
330
70
100
AcDbEntity
  8
0
 62
    18
420
        0
370
    25
100
AcDbLine
 10
342.1776957139928
 20
44.49856966139494
 30
0.0
 11
342.1776957139928
 21
49.76166195398285
 31
0.0
  0
LINE
  5
B8
330
70
100
AcDbEntity
  8
0
 62
    18
420
        0
370
    25
100
AcDbLine
 10
338.0243632689751
 20
81.38386538170143
 30
0.0
 11
338.0243632689751
 21
76.12077308911382
 31
0.0
  0
LINE
  5
B9
330
70
100
AcDbEntity
  8
0
 62
    18
420
        0
370
    25
100
AcDbLine
 10
342.1776957139928
 20
76.12077308911382
 30
0.0
 11
342.1776957139928
 21
81.38386538170143
 31
0.0
  0
LINE
  5
BA
330
70
100
AcDbEntity
  8
0
 62
    18
420
        0
370
    25
100
AcDbLine
 10
338.0243632689751
 20
91.9563450737476
 30
0.0
 11
338.0243632689751
 21
86.69325278116001
 31
0.0
  0
LINE
  5
BB
330
70
100
AcDbEntity
  8
0
 62
    18
420
        0
370
    25
100
AcDbLine
 10
342.1776957139928
 20
86.69325278116001
 30
0.0
 11
342.1776957139928
 21
91.9563450737476
 31
0.0
  0
LINE
  5
BC
330
70
100
AcDbEntity
  8
0
 62
    18
420
        0
370
    25
100
AcDbLine
 10
338.0243632689751
 20
123.5785485014665
 30
0.0
 11
338.0243632689751
 21
118.3154562088789
 31
0.0
  0
LINE
  5
BD
330
70
100
AcDbEntity
  8
0
 62
    18
420
        0
370
    25
100
AcDbLine
 10
342.1776957139928
 20
118.3154562088789
 30
0.0
 11
342.1776957139928
 21
123.5785485014665
 31
0.0
  0
LINE
  5
BE
330
70
100
AcDbEntity
  8
0
 62
    18
420
        0
370
    25
100
AcDbLine
 10
338.0243632689751
 20
134.1510281935127
 30
0.0
 11
338.0243632689751
 21
128.887935900925
 31
0.0
  0
LINE
  5
BF
330
70
100
AcDbEntity
  8
0
 62
    18
420
        0
370
    25
100
AcDbLine
 10
342.1776957139928
 20
128.887935900925
 30
0.0
 11
342.1776957139928
 21
134.1510281935127
 31
0.0
  0
LINE
  5
C0
330
70
100
AcDbEntity
  8
0
 62
    18
420
        0
370
    25
100
AcDbLine
 10
338.0111360955835
 20
27.84952651316679
 30
0.0
 11
338.0375904423667
 21
27.82307216638291
 31
0.0
  0
LINE
  5
C1
330
70
100
AcDbEntity
  8
0
 62
    18
420
        0
370
    25
100
AcDbLine
 10
342.1644685406008
 20
27.82307216638291
 30
0.0
 11
342.1909228873844
 21
27.84952651316679
 31
0.0
  0
LINE
  5
C2
330
70
100
AcDbEntity
  8
0
 62
    18
420
        0
370
    25
100
AcDbLine
 10
342.1909228873844
 20
27.84952651316679
 30
0.0
 11
342.1909228873844
 21
28.59024822310595
 31
0.0
  0
LINE
  5
C3
330
70
100
AcDbEntity
  8
0
 62
    18
420
        0
370
    25
100
AcDbLine
 10
338.0111360955835
 20
28.59024822310595
 30
0.0
 11
338.0111360955835
 21
27.84952651316679
 31
0.0
  0
LINE
  5
C4
330
70
100
AcDbEntity
  8
0
 62
    18
420
        0
370
    25
100
AcDbLine
 10
342.1909228873844
 20
28.59024822310595
 30
0.0
 11
342.1644685406008
 21
28.61670256988984
 31
0.0
  0
LINE
  5
C5
330
70
100
AcDbEntity
  8
0
 62
    18
420
        0
370
    25
100
AcDbLine
 10
338.0375904423667
 20
28.61670256988984
 30
0.0
 11
338.0111360955835
 21
28.59024822310595
 31
0.0
  0
LINE
  5
C6
330
70
100
AcDbEntity
  8
0
 62
    18
420
        0
370
    25
100
AcDbLine
 10
338.0111360955831
 20
55.83822541016449
 30
0.0
 11
338.0111360955831
 21
55.09750370022533
 31
0.0
  0
LINE
  5
C7
330
70
100
AcDbEntity
  8
0
 62
    18
420
        0
370
    25
100
AcDbLine
 10
342.1909228873844
 20
55.09750370022533
 30
0.0
 11
342.1909228873844
 21
55.83822541016449
 31
0.0
  0
LINE
  5
C8
330
70
100
AcDbEntity
  8
0
 62
    18
420
        0
370
    25
100
AcDbLine
 10
338.0111360955831
 20
55.09750370022469
 30
0.0
 11
338.0375904423667
 21
55.07104935344145
 31
0.0
  0
LINE
  5
C9
330
70
100
AcDbEntity
  8
0
 62
    18
420
        0
370
    25
100
AcDbLine
 10
342.1644685406008
 20
55.07104935344145
 30
0.0
 11
342.1909228873844
 21
55.09750370022469
 31
0.0
  0
LINE
  5
CA
330
70
100
AcDbEntity
  8
0
 62
    18
420
        0
370
    25
100
AcDbLine
 10
342.1909228873844
 20
55.83822541016449
 30
0.0
 11
342.1644685406008
 21
55.86467975694773
 31
0.0
  0
LINE
  5
CB
330
70
100
AcDbEntity
  8
0
 62
    18
420
        0
370
    25
100
AcDbLine
 10
338.0375904423667
 20
55.86467975694773
 30
0.0
 11
338.0111360955831
 21
55.83822541016449
 31
0.0
  0
LINE
  5
CC
330
70
100
AcDbEntity
  8
0
 62
    18
420
        0
370
    25
100
AcDbLine
 10
342.1909228873844
 20
70.04420963293187
 30
0.0
 11
342.1909228873844
 21
70.78493134287102
 31
0.0
  0
LINE
  5
CD
330
70
100
AcDbEntity
  8
0
 62
    18
420
        0
370
    25
100
AcDbLine
 10
338.0111360955835
 20
70.78493134287102
 30
0.0
 11
338.0111360955835
 21
70.04420963293187
 31
0.0
  0
LINE
  5
CE
330
70
100
AcDbEntity
  8
0
 62
    18
420
        0
370
    25
100
AcDbLine
 10
338.0111360955835
 20
70.04420963293187
 30
0.0
 11
338.0375904423667
 21
70.01775528614797
 31
0.0
  0
LINE
  5
CF
330
70
100
AcDbEntity
  8
0
 62
    18
420
        0
370
    25
100
AcDbLine
 10
342.1644685406008
 20
70.01775528614797
 30
0.0
 11
342.1909228873844
 21
70.04420963293187
 31
0.0
  0
LINE
  5
D0
330
70
100
AcDbEntity
  8
0
 62
    18
420
        0
370
    25
100
AcDbLine
 10
342.1909228873844
 20
70.78493134287102
 30
0.0
 11
342.1644685406008
 21
70.81138568965491
 31
0.0
  0
LINE
  5
D1
330
70
100
AcDbEntity
  8
0
 62
    18
420
        0
370
    25
100
AcDbLine
 10
338.0375904423667
 20
70.81138568965491
 30
0.0
 11
338.0111360955835
 21
70.78493134287102
 31
0.0
  0
LINE
  5
D2
330
70
100
AcDbEntity
  8
0
 62
    18
420
        0
370
    25
100
AcDbLine
 10
338.0111360955835
 20
139.4868699397551
 30
0.0
 11
338.037590442367
 21
139.4604155929716
 31
0.0
  0
LINE
  5
D3
330
70
100
AcDbEntity
  8
0
 62
    18
420
        0
370
    25
100
AcDbLine
 10
342.1644685406012
 20
139.4604155929716
 30
0.0
 11
342.1909228873847
 21
139.4868699397551
 31
0.0
  0
LINE
  5
D4
330
70
100
AcDbEntity
  8
0
 62
    18
420
        0
370
    25
100
AcDbLine
 10
338.0111360955835
 20
140.2275916496946
 30
0.0
 11
338.0111360955835
 21
139.4868699397551
 31
0.0
  0
LINE
  5
D5
330
70
100
AcDbEntity
  8
0
 62
    18
420
        0
370
    25
100
AcDbLine
 10
342.1909228873847
 20
139.4868699397551
 30
0.0
 11
342.1909228873847
 21
140.2275916496946
 31
0.0
  0
LINE
  5
D6
330
70
100
AcDbEntity
  8
0
 62
    18
420
        0
370
    25
100
AcDbLine
 10
342.1909228873847
 20
140.2275916496946
 30
0.0
 11
342.1644685406012
 21
140.2540459964782
 31
0.0
  0
LINE
  5
D7
330
70
100
AcDbEntity
  8
0
 62
    18
420
        0
370
    25
100
AcDbLine
 10
338.037590442367
 20
140.2540459964782
 30
0.0
 11
338.0111360955835
 21
140.2275916496946
 31
0.0
  0
LINE
  5
D8
330
70
100
AcDbEntity
  8
0
 62
    18
420
        0
370
    25
100
AcDbLine
 10
338.0111360955831
 20
97.29218681999007
 30
0.0
 11
338.0375904423667
 21
97.26573247320652
 31
0.0
  0
LINE
  5
D9
330
70
100
AcDbEntity
  8
0
 62
    18
420
        0
370
    25
100
AcDbLine
 10
342.1644685406008
 20
97.26573247320652
 30
0.0
 11
342.1909228873844
 21
97.29218681999007
 31
0.0
  0
LINE
  5
DA
330
70
100
AcDbEntity
  8
0
 62
    18
420
        0
370
    25
100
AcDbLine
 10
338.0111360955831
 20
98.03290852992958
 30
0.0
 11
338.0111360955831
 21
97.29218681999007
 31
0.0
  0
LINE
  5
DB
330
70
100
AcDbEntity
  8
0
 62
    18
420
        0
370
    25
100
AcDbLine
 10
342.1909228873844
 20
97.29218681999007
 30
0.0
 11
342.1909228873844
 21
98.03290852992958
 31
0.0
  0
LINE
  5
DC
330
70
100
AcDbEntity
  8
0
 62
    18
420
        0
370
    25
100
AcDbLine
 10
342.1909228873844
 20
98.03290852992958
 30
0.0
 11
342.1644685406008
 21
98.05936287671315
 31
0.0
  0
LINE
  5
DD
330
70
100
AcDbEntity
  8
0
 62
    18
420
        0
370
    25
100
AcDbLine
 10
338.0375904423667
 20
98.05936287671315
 30
0.0
 11
338.0111360955831
 21
98.03290852992958
 31
0.0
  0
LINE
  5
DE
330
70
100
AcDbEntity
  8
0
 62
    18
420
        0
370
    25
100
AcDbLine
 10
338.0111360955835
 20
112.2388927526969
 30
0.0
 11
338.037590442367
 21
112.2124384059133
 31
0.0
  0
LINE
  5
DF
330
70
100
AcDbEntity
  8
0
 62
    18
420
        0
370
    25
100
AcDbLine
 10
342.1644685406012
 20
112.2124384059133
 30
0.0
 11
342.1909228873847
 21
112.2388927526969
 31
0.0
  0
LINE
  5
E0
330
70
100
AcDbEntity
  8
0
 62
    18
420
        0
370
    25
100
AcDbLine
 10
342.1909228873847
 20
112.2388927526969
 30
0.0
 11
342.1909228873847
 21
112.9796144626361
 31
0.0
  0
LINE
  5
E1
330
70
100
AcDbEntity
  8
0
 62
    18
420
        0
370
    25
100
AcDbLine
 10
338.0111360955835
 20
112.9796144626361
 30
0.0
 11
338.0111360955835
 21
112.2388927526969
 31
0.0
  0
LINE
  5
E2
330
70
100
AcDbEntity
  8
0
 62
    18
420
        0
370
    25
100
AcDbLine
 10
342.1909228873847
 20
112.9796144626361
 30
0.0
 11
342.1644685406012
 21
113.0060688094196
 31
0.0
  0
LINE
  5
E3
330
70
100
AcDbEntity
  8
0
 62
    18
420
        0
370
    25
100
AcDbLine
 10
338.037590442367
 20
113.0060688094196
 30
0.0
 11
338.0111360955835
 21
112.9796144626361
 31
0.0
  0
LINE
  5
E4
330
70
100
AcDbEntity
  8
0
 62
    18
420
        0
370
    25
100
AcDbLine
 10
338.9105838862241
 20
70.81138568965491
 30
0.0
 11
339.7042142897307
 21
70.81138568965491
 31
0.0
  0
LINE
  5
E5
330
70
100
AcDbEntity
  8
0
 62
    18
420
        0
370
    25
100
AcDbLine
 10
338.9105838862241
 20
75.04408117502298
 30
0.0
 11
338.9105838862241
 21
70.81138568965491
 31
0.0
  0
LINE
  5
E6
330
70
100
AcDbEntity
  8
0
 62
    18
420
        0
370
    25
100
AcDbLine
 10
339.7042142897307
 20
75.04408117502298
 30
0.0
 11
338.9105838862241
 21
75.04408117502298
 31
0.0
  0
LINE
  5
E7
330
70
100
AcDbEntity
  8
0
 62
    18
420
        0
370
    25
100
AcDbLine
 10
339.7042142897307
 20
70.81138568965491
 30
0.0
 11
339.7042142897307
 21
75.04408117502298
 31
0.0
  0
LINE
  5
E8
330
70
100
AcDbEntity
  8
0
 62
    18
420
        0
370
    25
100
AcDbLine
 10
338.9105838862241
 20
93.03303698783812
 30
0.0
 11
339.7042142897307
 21
93.03303698783812
 31
0.0
  0
LINE
  5
E9
330
70
100
AcDbEntity
  8
0
 62
    18
420
        0
370
    25
100
AcDbLine
 10
339.7042142897307
 20
75.04408117502298
 30
0.0
 11
339.7042142897307
 21
93.03303698783812
 31
0.0
  0
LINE
  5
EA
330
70
100
AcDbEntity
  8
0
 62
    18
420
        0
370
    25
100
AcDbLine
 10
338.9105838862241
 20
75.04408117502298
 30
0.0
 11
338.9105838862241
 21
93.03303698783812
 31
0.0
  0
LINE
  5
EB
330
70
100
AcDbEntity
  8
0
 62
    18
420
        0
370
    25
100
AcDbLine
 10
339.7042142897307
 20
97.26573247320652
 30
0.0
 11
338.9105838862241
 21
97.26573247320652
 31
0.0
  0
LINE
  5
EC
330
70
100
AcDbEntity
  8
0
 62
    18
420
        0
370
    25
100
AcDbLine
 10
339.7042142897307
 20
93.03303698783812
 30
0.0
 11
339.7042142897307
 21
97.26573247320652
 31
0.0
  0
LINE
  5
ED
330
70
100
AcDbEntity
  8
0
 62
    18
420
        0
370
    25
100
AcDbLine
 10
338.9105838862241
 20
97.26573247320652
 30
0.0
 11
338.9105838862241
 21
93.03303698783812
 31
0.0
  0
LINE
  5
EE
330
70
100
AcDbEntity
  8
0
 62
    18
420
        0
370
    25
100
AcDbLine
 10
338.8575167833948
 20
76.1207730891135
 30
0.0
 11
338.8575167833948
 21
70.81138568965491
 31
0.0
  0
LINE
  5
EF
330
70
100
AcDbEntity
  8
0
 62
    18
420
        0
370
    25
100
AcDbLine
 10
339.8364860236485
 20
70.81138568965491
 30
0.0
 11
339.8364860236485
 21
76.1207730891135
 31
0.0
  0
LINE
  5
F0
330
70
100
AcDbEntity
  8
0
 62
    18
420
        0
370
    25
100
AcDbLine
 10
338.8575167833948
 20
76.1207730891135
 30
0.0
 11
338.0243632689751
 21
76.1207730891135
 31
0.0
  0
LINE
  5
F1
330
70
100
AcDbEntity
  8
0
 62
    18
420
        0
370
    25
100
AcDbLine
 10
342.1776957139928
 20
76.1207730891135
 30
0.0
 11
339.8364860236485
 21
76.1207730891135
 31
0.0
  0
LINE
  5
F2
330
70
100
AcDbEntity
  8
0
 62
    18
420
        0
370
    25
100
AcDbLine
 10
339.8364860236485
 20
70.81138568965491
 30
0.0
 11
342.1776957139928
 21
70.81138568965491
 31
0.0
  0
LINE
  5
F3
330
70
100
AcDbEntity
  8
0
 62
    18
420
        0
370
    25
100
AcDbLine
 10
338.0243632689751
 20
70.81138568965491
 30
0.0
 11
338.8575167833948
 21
70.81138568965491
 31
0.0
  0
LINE
  5
F4
330
70
100
AcDbEntity
  8
0
 62
    18
420
        0
370
    25
100
AcDbLine
 10
338.8575167833948
 20
86.69325278116001
 30
0.0
 11
338.8575167833948
 21
81.38386538170109
 31
0.0
  0
LINE
  5
F5
330
70
100
AcDbEntity
  8
0
 62
    18
420
        0
370
    25
100
AcDbLine
 10
339.8364860236485
 20
81.38386538170109
 30
0.0
 11
339.8364860236485
 21
86.69325278116001
 31
0.0
  0
LINE
  5
F6
330
70
100
AcDbEntity
  8
0
 62
    18
420
        0
370
    25
100
AcDbLine
 10
338.8575167833948
 20
86.69325278116001
 30
0.0
 11
338.0243632689751
 21
86.69325278116001
 31
0.0
  0
LINE
  5
F7
330
70
100
AcDbEntity
  8
0
 62
    18
420
        0
370
    25
100
AcDbLine
 10
342.1776957139928
 20
86.69325278116001
 30
0.0
 11
339.8364860236485
 21
86.69325278116001
 31
0.0
  0
LINE
  5
F8
330
70
100
AcDbEntity
  8
0
 62
    18
420
        0
370
    25
100
AcDbLine
 10
339.8364860236485
 20
81.38386538170109
 30
0.0
 11
342.1776957139928
 21
81.38386538170109
 31
0.0
  0
LINE
  5
F9
330
70
100
AcDbEntity
  8
0
 62
    18
420
        0
370
    25
100
AcDbLine
 10
338.0243632689751
 20
81.38386538170109
 30
0.0
 11
338.8575167833948
 21
81.38386538170109
 31
0.0
  0
LINE
  5
FA
330
70
100
AcDbEntity
  8
0
 62
    18
420
        0
370
    25
100
AcDbLine
 10
339.8364860236485
 20
91.9563450737476
 30
0.0
 11
339.8364860236485
 21
97.26573247320652
 31
0.0
  0
LINE
  5
FB
330
70
100
AcDbEntity
  8
0
 62
    18
420
        0
370
    25
100
AcDbLine
 10
338.8575167833948
 20
97.26573247320652
 30
0.0
 11
338.8575167833948
 21
91.9563450737476
 31
0.0
  0
LINE
  5
FC
330
70
100
AcDbEntity
  8
0
 62
    18
420
        0
370
    25
100
AcDbLine
 10
339.8364860236485
 20
91.9563450737476
 30
0.0
 11
342.1776957139928
 21
91.9563450737476
 31
0.0
  0
LINE
  5
FD
330
70
100
AcDbEntity
  8
0
 62
    18
420
        0
370
    25
100
AcDbLine
 10
338.0243632689751
 20
91.9563450737476
 30
0.0
 11
338.8575167833948
 21
91.9563450737476
 31
0.0
  0
LINE
  5
FE
330
70
100
AcDbEntity
  8
0
 62
    18
420
        0
370
    25
100
AcDbLine
 10
338.8575167833948
 20
97.26573247320652
 30
0.0
 11
338.0243632689751
 21
97.26573247320652
 31
0.0
  0
LINE
  5
FF
330
70
100
AcDbEntity
  8
0
 62
    18
420
        0
370
    25
100
AcDbLine
 10
342.1776957139928
 20
97.26573247320652
 30
0.0
 11
339.8364860236485
 21
97.26573247320652
 31
0.0
  0
LINE
  5
100
330
70
100
AcDbEntity
  8
0
 62
    18
420
        0
370
    25
100
AcDbLine
 10
338.9105838862241
 20
76.1207730891135
 30
0.0
 11
338.8575167833948
 21
76.1207730891135
 31
0.0
  0
LINE
  5
101
330
70
100
AcDbEntity
  8
0
 62
    18
420
        0
370
    25
100
AcDbLine
 10
338.8575167833948
 20
70.81138568965491
 30
0.0
 11
338.9105838862241
 21
70.81138568965491
 31
0.0
  0
LINE
  5
102
330
70
100
AcDbEntity
  8
0
 62
    18
420
        0
370
    25
100
AcDbLine
 10
338.9105838862241
 20
86.69325278116001
 30
0.0
 11
338.8575167833948
 21
86.69325278116001
 31
0.0
  0
LINE
  5
103
330
70
100
AcDbEntity
  8
0
 62
    18
420
        0
370
    25
100
AcDbLine
 10
338.8575167833948
 20
81.38386538170109
 30
0.0
 11
338.9105838862241
 21
81.38386538170109
 31
0.0
  0
LINE
  5
104
330
70
100
AcDbEntity
  8
0
 62
    18
420
        0
370
    25
100
AcDbLine
 10
338.8575167833948
 20
91.9563450737476
 30
0.0
 11
338.9105838862241
 21
91.9563450737476
 31
0.0
  0
LINE
  5
105
330
70
100
AcDbEntity
  8
0
 62
    18
420
        0
370
    25
100
AcDbLine
 10
338.9105838862241
 20
97.26573247320652
 30
0.0
 11
338.8575167833948
 21
97.26573247320652
 31
0.0
  0
LINE
  5
106
330
70
100
AcDbEntity
  8
0
 62
    18
420
        0
370
    25
100
AcDbLine
 10
338.9105838862243
 20
113.00606880942
 30
0.0
 11
339.7042142897309
 21
113.00606880942
 31
0.0
  0
LINE
  5
107
330
70
100
AcDbEntity
  8
0
 62
    18
420
        0
370
    25
100
AcDbLine
 10
338.9105838862243
 20
117.238764294788
 30
0.0
 11
338.9105838862243
 21
113.00606880942
 31
0.0
  0
LINE
  5
108
330
70
100
AcDbEntity
  8
0
 62
    18
420
        0
370
    25
100
AcDbLine
 10
339.7042142897309
 20
117.238764294788
 30
0.0
 11
338.9105838862243
 21
117.238764294788
 31
0.0
  0
LINE
  5
109
330
70
100
AcDbEntity
  8
0
 62
    18
420
        0
370
    25
100
AcDbLine
 10
339.7042142897309
 20
113.00606880942
 30
0.0
 11
339.7042142897309
 21
117.238764294788
 31
0.0
  0
LINE
  5
10A
330
70
100
AcDbEntity
  8
0
 62
    18
420
        0
370
    25
100
AcDbLine
 10
338.9105838862243
 20
135.2277201076032
 30
0.0
 11
339.7042142897309
 21
135.2277201076032
 31
0.0
  0
LINE
  5
10B
330
70
100
AcDbEntity
  8
0
 62
    18
420
        0
370
    25
100
AcDbLine
 10
339.7042142897309
 20
117.238764294788
 30
0.0
 11
339.7042142897309
 21
135.2277201076032
 31
0.0
  0
LINE
  5
10C
330
70
100
AcDbEntity
  8
0
 62
    18
420
        0
370
    25
100
AcDbLine
 10
338.9105838862243
 20
117.238764294788
 30
0.0
 11
338.9105838862243
 21
135.2277201076032
 31
0.0
  0
LINE
  5
10D
330
70
100
AcDbEntity
  8
0
 62
    18
420
        0
370
    25
100
AcDbLine
 10
339.7042142897309
 20
139.4604155929716
 30
0.0
 11
338.9105838862243
 21
139.4604155929716
 31
0.0
  0
LINE
  5
10E
330
70
100
AcDbEntity
  8
0
 62
    18
420
        0
370
    25
100
AcDbLine
 10
339.7042142897309
 20
135.2277201076032
 30
0.0
 11
339.7042142897309
 21
139.4604155929716
 31
0.0
  0
LINE
  5
10F
330
70
100
AcDbEntity
  8
0
 62
    18
420
        0
370
    25
100
AcDbLine
 10
338.9105838862243
 20
139.4604155929716
 30
0.0
 11
338.9105838862243
 21
135.2277201076032
 31
0.0
  0
LINE
  5
110
330
70
100
AcDbEntity
  8
0
 62
    18
420
        0
370
    25
100
AcDbLine
 10
338.8575167833948
 20
118.3154562088786
 30
0.0
 11
338.8575167833948
 21
113.00606880942
 31
0.0
  0
LINE
  5
111
330
70
100
AcDbEntity
  8
0
 62
    18
420
        0
370
    25
100
AcDbLine
 10
339.8364860236485
 20
113.00606880942
 30
0.0
 11
339.8364860236485
 21
118.3154562088786
 31
0.0
  0
LINE
  5
112
330
70
100
AcDbEntity
  8
0
 62
    18
420
        0
370
    25
100
AcDbLine
 10
338.8575167833948
 20
118.3154562088786
 30
0.0
 11
338.0243632689751
 21
118.3154562088786
 31
0.0
  0
LINE
  5
113
330
70
100
AcDbEntity
  8
0
 62
    18
420
        0
370
    25
100
AcDbLine
 10
342.1776957139928
 20
118.3154562088786
 30
0.0
 11
339.8364860236485
 21
118.3154562088786
 31
0.0
  0
LINE
  5
114
330
70
100
AcDbEntity
  8
0
 62
    18
420
        0
370
    25
100
AcDbLine
 10
339.8364860236485
 20
113.00606880942
 30
0.0
 11
342.1776957139928
 21
113.00606880942
 31
0.0
  0
LINE
  5
115
330
70
100
AcDbEntity
  8
0
 62
    18
420
        0
370
    25
100
AcDbLine
 10
338.0243632689751
 20
113.00606880942
 30
0.0
 11
338.8575167833948
 21
113.00606880942
 31
0.0
  0
LINE
  5
116
330
70
100
AcDbEntity
  8
0
 62
    18
420
        0
370
    25
100
AcDbLine
 10
338.8575167833948
 20
128.887935900925
 30
0.0
 11
338.8575167833948
 21
123.5785485014661
 31
0.0
  0
LINE
  5
117
330
70
100
AcDbEntity
  8
0
 62
    18
420
        0
370
    25
100
AcDbLine
 10
339.8364860236485
 20
123.5785485014661
 30
0.0
 11
339.8364860236485
 21
128.887935900925
 31
0.0
  0
LINE
  5
118
330
70
100
AcDbEntity
  8
0
 62
    18
420
        0
370
    25
100
AcDbLine
 10
338.8575167833948
 20
128.887935900925
 30
0.0
 11
338.0243632689751
 21
128.887935900925
 31
0.0
  0
LINE
  5
119
330
70
100
AcDbEntity
  8
0
 62
    18
420
        0
370
    25
100
AcDbLine
 10
342.1776957139928
 20
128.887935900925
 30
0.0
 11
339.8364860236485
 21
128.887935900925
 31
0.0
  0
LINE
  5
11A
330
70
100
AcDbEntity
  8
0
 62
    18
420
        0
370
    25
100
AcDbLine
 10
339.8364860236485
 20
123.5785485014661
 30
0.0
 11
342.1776957139928
 21
123.5785485014661
 31
0.0
  0
LINE
  5
11B
330
70
100
AcDbEntity
  8
0
 62
    18
420
        0
370
    25
100
AcDbLine
 10
338.0243632689751
 20
123.5785485014661
 30
0.0
 11
338.8575167833948
 21
123.5785485014661
 31
0.0
  0
LINE
  5
11C
330
70
100
AcDbEntity
  8
0
 62
    18
420
        0
370
    25
100
AcDbLine
 10
339.8364860236485
 20
134.1510281935127
 30
0.0
 11
339.8364860236485
 21
139.4604155929716
 31
0.0
  0
LINE
  5
11D
330
70
100
AcDbEntity
  8
0
 62
    18
420
        0
370
    25
100
AcDbLine
 10
338.8575167833948
 20
139.4604155929716
 30
0.0
 11
338.8575167833948
 21
134.1510281935127
 31
0.0
  0
LINE
  5
11E
330
70
100
AcDbEntity
  8
0
 62
    18
420
        0
370
    25
100
AcDbLine
 10
339.8364860236485
 20
134.1510281935127
 30
0.0
 11
342.1776957139928
 21
134.1510281935127
 31
0.0
  0
LINE
  5
11F
330
70
100
AcDbEntity
  8
0
 62
    18
420
        0
370
    25
100
AcDbLine
 10
338.0243632689751
 20
134.1510281935127
 30
0.0
 11
338.8575167833948
 21
134.1510281935127
 31
0.0
  0
LINE
  5
120
330
70
100
AcDbEntity
  8
0
 62
    18
420
        0
370
    25
100
AcDbLine
 10
338.8575167833948
 20
139.4604155929716
 30
0.0
 11
338.0243632689751
 21
139.4604155929716
 31
0.0
  0
LINE
  5
121
330
70
100
AcDbEntity
  8
0
 62
    18
420
        0
370
    25
100
AcDbLine
 10
342.1776957139928
 20
139.4604155929716
 30
0.0
 11
339.8364860236485
 21
139.4604155929716
 31
0.0
  0
LINE
  5
122
330
70
100
AcDbEntity
  8
0
 62
    18
420
        0
370
    25
100
AcDbLine
 10
338.9105838862243
 20
118.3154562088786
 30
0.0
 11
338.8575167833948
 21
118.3154562088786
 31
0.0
  0
LINE
  5
123
330
70
100
AcDbEntity
  8
0
 62
    18
420
        0
370
    25
100
AcDbLine
 10
338.8575167833948
 20
113.00606880942
 30
0.0
 11
338.9105838862243
 21
113.00606880942
 31
0.0
  0
LINE
  5
124
330
70
100
AcDbEntity
  8
0
 62
    18
420
        0
370
    25
100
AcDbLine
 10
338.9105838862243
 20
128.887935900925
 30
0.0
 11
338.8575167833948
 21
128.887935900925
 31
0.0
  0
LINE
  5
125
330
70
100
AcDbEntity
  8
0
 62
    18
420
        0
370
    25
100
AcDbLine
 10
338.8575167833948
 20
123.5785485014661
 30
0.0
 11
338.9105838862243
 21
123.5785485014661
 31
0.0
  0
LINE
  5
126
330
70
100
AcDbEntity
  8
0
 62
    18
420
        0
370
    25
100
AcDbLine
 10
338.8575167833948
 20
134.1510281935127
 30
0.0
 11
338.9105838862243
 21
134.1510281935127
 31
0.0
  0
LINE
  5
127
330
70
100
AcDbEntity
  8
0
 62
    18
420
        0
370
    25
100
AcDbLine
 10
338.9105838862243
 20
139.4604155929716
 30
0.0
 11
338.8575167833948
 21
139.4604155929716
 31
0.0
  0
LINE
  5
128
330
70
100
AcDbEntity
  8
0
 62
    18
420
        0
370
    25
100
AcDbLine
 10
338.9105838862241
 20
28.61670256988984
 30
0.0
 11
339.7042142897307
 21
28.61670256988984
 31
0.0
  0
LINE
  5
129
330
70
100
AcDbEntity
  8
0
 62
    18
420
        0
370
    25
100
AcDbLine
 10
338.9105838862241
 20
32.84939805525823
 30
0.0
 11
338.9105838862241
 21
28.61670256988984
 31
0.0
  0
LINE
  5
12A
330
70
100
AcDbEntity
  8
0
 62
    18
420
        0
370
    25
100
AcDbLine
 10
339.7042142897307
 20
32.84939805525823
 30
0.0
 11
338.9105838862241
 21
32.84939805525823
 31
0.0
  0
LINE
  5
12B
330
70
100
AcDbEntity
  8
0
 62
    18
420
        0
370
    25
100
AcDbLine
 10
339.7042142897307
 20
28.61670256988984
 30
0.0
 11
339.7042142897307
 21
32.84939805525823
 31
0.0
  0
LINE
  5
12C
330
70
100
AcDbEntity
  8
0
 62
    18
420
        0
370
    25
100
AcDbLine
 10
338.9105838862241
 20
50.83835386807306
 30
0.0
 11
339.7042142897307
 21
50.83835386807306
 31
0.0
  0
LINE
  5
12D
330
70
100
AcDbEntity
  8
0
 62
    18
420
        0
370
    25
100
AcDbLine
 10
338.9105838862241
 20
32.84939805525823
 30
0.0
 11
338.9105838862241
 21
50.83835386807306
 31
0.0
  0
LINE
  5
12E
330
70
100
AcDbEntity
  8
0
 62
    18
420
        0
370
    25
100
AcDbLine
 10
339.7042142897307
 20
32.84939805525823
 30
0.0
 11
339.7042142897307
 21
50.83835386807306
 31
0.0
  0
LINE
  5
12F
330
70
100
AcDbEntity
  8
0
 62
    18
420
        0
370
    25
100
AcDbLine
 10
339.7042142897307
 20
55.07104935344145
 30
0.0
 11
338.9105838862241
 21
55.07104935344145
 31
0.0
  0
LINE
  5
130
330
70
100
AcDbEntity
  8
0
 62
    18
420
        0
370
    25
100
AcDbLine
 10
338.9105838862241
 20
55.07104935344145
 30
0.0
 11
338.9105838862241
 21
50.83835386807306
 31
0.0
  0
LINE
  5
131
330
70
100
AcDbEntity
  8
0
 62
    18
420
        0
370
    25
100
AcDbLine
 10
339.7042142897307
 20
50.83835386807306
 30
0.0
 11
339.7042142897307
 21
55.07104935344145
 31
0.0
  0
LINE
  5
132
330
70
100
AcDbEntity
  8
0
 62
    18
420
        0
370
    25
100
AcDbLine
 10
338.8575167833948
 20
33.92608996934843
 30
0.0
 11
338.8575167833948
 21
28.61670256988984
 31
0.0
  0
LINE
  5
133
330
70
100
AcDbEntity
  8
0
 62
    18
420
        0
370
    25
100
AcDbLine
 10
339.8364860236485
 20
28.61670256988984
 30
0.0
 11
339.8364860236485
 21
33.92608996934843
 31
0.0
  0
LINE
  5
134
330
70
100
AcDbEntity
  8
0
 62
    18
420
        0
370
    25
100
AcDbLine
 10
338.8575167833948
 20
33.92608996934843
 30
0.0
 11
338.0243632689751
 21
33.92608996934843
 31
0.0
  0
LINE
  5
135
330
70
100
AcDbEntity
  8
0
 62
    18
420
        0
370
    25
100
AcDbLine
 10
342.1776957139928
 20
33.92608996934843
 30
0.0
 11
339.8364860236485
 21
33.92608996934843
 31
0.0
  0
LINE
  5
136
330
70
100
AcDbEntity
  8
0
 62
    18
420
        0
370
    25
100
AcDbLine
 10
339.8364860236485
 20
28.61670256988984
 30
0.0
 11
342.1776957139928
 21
28.61670256988984
 31
0.0
  0
LINE
  5
137
330
70
100
AcDbEntity
  8
0
 62
    18
420
        0
370
    25
100
AcDbLine
 10
338.0243632689751
 20
28.61670256988984
 30
0.0
 11
338.8575167833948
 21
28.61670256988984
 31
0.0
  0
LINE
  5
138
330
70
100
AcDbEntity
  8
0
 62
    18
420
        0
370
    25
100
AcDbLine
 10
338.8575167833948
 20
44.49856966139494
 30
0.0
 11
338.8575167833948
 21
39.18918226193635
 31
0.0
  0
LINE
  5
139
330
70
100
AcDbEntity
  8
0
 62
    18
420
        0
370
    25
100
AcDbLine
 10
339.8364860236485
 20
39.18918226193635
 30
0.0
 11
342.1776957139928
 21
39.18918226193635
 31
0.0
  0
LINE
  5
13A
330
70
100
AcDbEntity
  8
0
 62
    18
420
        0
370
    25
100
AcDbLine
 10
338.0243632689751
 20
39.18918226193635
 30
0.0
 11
338.8575167833948
 21
39.18918226193635
 31
0.0
  0
LINE
  5
13B
330
70
100
AcDbEntity
  8
0
 62
    18
420
        0
370
    25
100
AcDbLine
 10
339.8364860236485
 20
39.18918226193635
 30
0.0
 11
339.8364860236485
 21
44.49856966139494
 31
0.0
  0
LINE
  5
13C
330
70
100
AcDbEntity
  8
0
 62
    18
420
        0
370
    25
100
AcDbLine
 10
338.8575167833948
 20
44.49856966139494
 30
0.0
 11
338.0243632689751
 21
44.49856966139494
 31
0.0
  0
LINE
  5
13D
330
70
100
AcDbEntity
  8
0
 62
    18
420
        0
370
    25
100
AcDbLine
 10
342.1776957139928
 20
44.49856966139494
 30
0.0
 11
339.8364860236485
 21
44.49856966139494
 31
0.0
  0
LINE
  5
13E
330
70
100
AcDbEntity
  8
0
 62
    18
420
        0
370
    25
100
AcDbLine
 10
339.8364860236485
 20
49.76166195398285
 30
0.0
 11
339.8364860236485
 21
55.07104935344145
 31
0.0
  0
LINE
  5
13F
330
70
100
AcDbEntity
  8
0
 62
    18
420
        0
370
    25
100
AcDbLine
 10
338.8575167833948
 20
55.07104935344145
 30
0.0
 11
338.8575167833948
 21
49.76166195398285
 31
0.0
  0
LINE
  5
140
330
70
100
AcDbEntity
  8
0
 62
    18
420
        0
370
    25
100
AcDbLine
 10
339.8364860236485
 20
49.76166195398285
 30
0.0
 11
342.1776957139928
 21
49.76166195398285
 31
0.0
  0
LINE
  5
141
330
70
100
AcDbEntity
  8
0
 62
    18
420
        0
370
    25
100
AcDbLine
 10
338.0243632689751
 20
49.76166195398285
 30
0.0
 11
338.8575167833948
 21
49.76166195398285
 31
0.0
  0
LINE
  5
142
330
70
100
AcDbEntity
  8
0
 62
    18
420
        0
370
    25
100
AcDbLine
 10
338.8575167833948
 20
55.07104935344145
 30
0.0
 11
338.0243632689751
 21
55.07104935344145
 31
0.0
  0
LINE
  5
143
330
70
100
AcDbEntity
  8
0
 62
    18
420
        0
370
    25
100
AcDbLine
 10
342.1776957139928
 20
55.07104935344145
 30
0.0
 11
339.8364860236485
 21
55.07104935344145
 31
0.0
  0
LINE
  5
144
330
70
100
AcDbEntity
  8
0
 62
    18
420
        0
370
    25
100
AcDbLine
 10
338.9105838862241
 20
33.92608996934843
 30
0.0
 11
338.8575167833948
 21
33.92608996934843
 31
0.0
  0
LINE
  5
145
330
70
100
AcDbEntity
  8
0
 62
    18
420
        0
370
    25
100
AcDbLine
 10
338.8575167833948
 20
28.61670256988984
 30
0.0
 11
338.9105838862241
 21
28.61670256988984
 31
0.0
  0
LINE
  5
146
330
70
100
AcDbEntity
  8
0
 62
    18
420
        0
370
    25
100
AcDbLine
 10
338.9105838862241
 20
44.49856966139494
 30
0.0
 11
338.8575167833948
 21
44.49856966139494
 31
0.0
  0
LINE
  5
147
330
70
100
AcDbEntity
  8
0
 62
    18
420
        0
370
    25
100
AcDbLine
 10
338.8575167833948
 20
39.18918226193635
 30
0.0
 11
338.9105838862241
 21
39.18918226193635
 31
0.0
  0
LINE
  5
148
330
70
100
AcDbEntity
  8
0
 62
    18
420
        0
370
    25
100
AcDbLine
 10
338.8575167833948
 20
49.76166195398285
 30
0.0
 11
338.9105838862241
 21
49.76166195398285
 31
0.0
  0
LINE
  5
149
330
70
100
AcDbEntity
  8
0
 62
    18
420
        0
370
    25
100
AcDbLine
 10
338.9105838862241
 20
55.07104935344145
 30
0.0
 11
338.8575167833948
 21
55.07104935344145
 31
0.0
  0
LINE
  5
14A
330
70
100
AcDbEntity
  8
0
 62
    18
420
        0
370
    25
100
AcDbLine
 10
342.1776957139928
 20
39.18918226193635
 30
0.0
 11
339.7042142897307
 21
39.18918226193635
 31
0.0
  0
LINE
  5
14B
330
70
100
AcDbEntity
  8
0
 62
    18
420
        0
370
    25
100
AcDbLine
 10
339.7042142897307
 20
33.92608996934843
 30
0.0
 11
342.1776957139928
 21
33.92608996934843
 31
0.0
  0
LINE
  5
14C
330
70
100
AcDbEntity
  8
0
 62
    18
420
        0
370
    25
100
AcDbLine
 10
342.1776957139928
 20
49.76166195398285
 30
0.0
 11
339.7042142897307
 21
49.76166195398285
 31
0.0
  0
LINE
  5
14D
330
70
100
AcDbEntity
  8
0
 62
    18
420
        0
370
    25
100
AcDbLine
 10
339.7042142897307
 20
44.49856966139494
 30
0.0
 11
342.1776957139928
 21
44.49856966139494
 31
0.0
  0
LINE
  5
14E
330
70
100
AcDbEntity
  8
0
 62
    18
420
        0
370
    25
100
AcDbLine
 10
342.1776957139928
 20
28.61670256988984
 30
0.0
 11
346.2648922920514
 21
28.61670256988984
 31
0.0
  0
LINE
  5
14F
330
70
100
AcDbEntity
  8
0
 62
    18
420
        0
370
    25
100
AcDbLine
 10
346.2648922920514
 20
55.07104935344145
 30
0.0
 11
342.1776957139928
 21
55.07104935344145
 31
0.0
  0
SPLINE
  5
150
330
70
100
AcDbEntity
  8
0
 62
    18
420
        0
370
    25
100
AcDbSpline
210
0.0
220
0.0
230
1.0
 70
     8
 71
     3
 72
     8
 73
     4
 74
     0
 42
0.0000000001
 43
0.0000000001
 40
0.0
 40
0.0
 40
0.0
 40
0.0
 40
1.0
 40
1.0
 40
1.0
 40
1.0
 10
350.4975877774198
 20
50.83835386807306
 30
0.0
 10
350.4975877774198
 20
53.17600703531965
 30
0.0
 10
348.602545459298
 20
55.07104935344145
 30
0.0
 10
346.2648922920514
 20
55.07104935344145
 30
0.0
  0
LINE
  5
151
330
70
100
AcDbEntity
  8
0
 62
    18
420
        0
370
    25
100
AcDbLine
 10
350.4975877774198
 20
50.83835386807306
 30
0.0
 11
350.4975877774198
 21
32.84939805525823
 31
0.0
  0
CIRCLE
  5
152
330
70
100
AcDbEntity
  8
0
 62
    18
420
        0
370
    25
100
AcDbCircle
 10
344.5189054043372
 20
31.92349591783379
 30
0.0
 40
1.32271733917758
  0
CIRCLE
  5
153
330
70
100
AcDbEntity
  8
0
 62
    18
420
        0
370
    25
100
AcDbCircle
 10
348.9103269704066
 20
38.53708261372169
 30
0.0
 40
1.32271733917758
  0
CIRCLE
  5
154
330
70
100
AcDbEntity
  8
0
 62
    18
420
        0
370
    25
100
AcDbCircle
 10
348.9103269704066
 20
45.15066930960959
 30
0.0
 40
1.32271733917758
  0
CIRCLE
  5
155
330
70
100
AcDbEntity
  8
0
 62
    18
420
        0
370
    25
100
AcDbCircle
 10
344.5189054043372
 20
51.76425600549749
 30
0.0
 40
1.32271733917758
  0
SPLINE
  5
156
330
70
100
AcDbEntity
  8
0
 62
    18
420
        0
370
    25
100
AcDbSpline
210
0.0
220
0.0
230
1.0
 70
     8
 71
     3
 72
     8
 73
     4
 74
     0
 42
0.0000000001
 43
0.0000000001
 40
0.0
 40
0.0
 40
0.0
 40
0.0
 40
1.0
 40
1.0
 40
1.0
 40
1.0
 10
346.2648922920514
 20
28.61670256988984
 30
0.0
 10
348.602545459298
 20
28.61670256988984
 30
0.0
 10
350.4975877774198
 20
30.51174488801163
 30
0.0
 10
350.4975877774198
 20
32.84939805525758
 30
0.0
  0
CIRCLE
  5
157
330
70
100
AcDbEntity
  8
0
 62
    18
420
        0
370
    25
100
AcDbCircle
 10
344.518905404337
 20
31.92349591783379
 30
0.0
 40
0.7936304035064119
  0
CIRCLE
  5
158
330
70
100
AcDbEntity
  8
0
 62
    18
420
        0
370
    25
100
AcDbCircle
 10
348.9103269704066
 20
38.53708261372153
 30
0.0
 40
0.7936304035065323
  0
CIRCLE
  5
159
330
70
100
AcDbEntity
  8
0
 62
    18
420
        0
370
    25
100
AcDbCircle
 10
348.9103269704066
 20
45.15066930960943
 30
0.0
 40
0.7936304035065323
  0
CIRCLE
  5
15A
330
70
100
AcDbEntity
  8
0
 62
    18
420
        0
370
    25
100
AcDbCircle
 10
344.5189054043372
 20
51.76425600549734
 30
0.0
 40
0.7936304035065323
  0
LINE
  5
15B
330
70
100
AcDbEntity
  8
0
 62
    18
420
        0
370
    25
100
AcDbLine
 10
342.1776957139928
 20
81.38386538170109
 30
0.0
 11
339.7042142897307
 21
81.38386538170109
 31
0.0
  0
LINE
  5
15C
330
70
100
AcDbEntity
  8
0
 62
    18
420
        0
370
    25
100
AcDbLine
 10
339.7042142897307
 20
76.1207730891135
 30
0.0
 11
342.1776957139928
 21
76.1207730891135
 31
0.0
  0
LINE
  5
15D
330
70
100
AcDbEntity
  8
0
 62
    18
420
        0
370
    25
100
AcDbLine
 10
342.1776957139928
 20
91.9563450737476
 30
0.0
 11
339.7042142897307
 21
91.9563450737476
 31
0.0
  0
LINE
  5
15E
330
70
100
AcDbEntity
  8
0
 62
    18
420
        0
370
    25
100
AcDbLine
 10
339.7042142897307
 20
86.69325278116001
 30
0.0
 11
342.1776957139928
 21
86.69325278116001
 31
0.0
  0
LINE
  5
15F
330
70
100
AcDbEntity
  8
0
 62
    18
420
        0
370
    25
100
AcDbLine
 10
342.1776957139928
 20
70.81138568965491
 30
0.0
 11
346.2648922920514
 21
70.81138568965491
 31
0.0
  0
LINE
  5
160
330
70
100
AcDbEntity
  8
0
 62
    18
420
        0
370
    25
100
AcDbLine
 10
346.2648922920514
 20
97.26573247320652
 30
0.0
 11
342.1776957139928
 21
97.26573247320652
 31
0.0
  0
SPLINE
  5
161
330
70
100
AcDbEntity
  8
0
 62
    18
420
        0
370
    25
100
AcDbSpline
210
0.0
220
0.0
230
1.0
 70
     8
 71
     3
 72
     8
 73
     4
 74
     0
 42
0.0000000001
 43
0.0000000001
 40
0.0
 40
0.0
 40
0.0
 40
0.0
 40
1.0
 40
1.0
 40
1.0
 40
1.0
 10
350.4975877774198
 20
93.03303698783812
 30
0.0
 10
350.4975877774198
 20
95.37069015508473
 30
0.0
 10
348.602545459298
 20
97.26573247320652
 30
0.0
 10
346.2648922920514
 20
97.26573247320652
 30
0.0
  0
LINE
  5
162
330
70
100
AcDbEntity
  8
0
 62
    18
420
        0
370
    25
100
AcDbLine
 10
350.4975877774198
 20
93.03303698783812
 30
0.0
 11
350.4975877774198
 21
75.04408117502298
 31
0.0
  0
SPLINE
  5
163
330
70
100
AcDbEntity
  8
0
 62
    18
420
        0
370
    25
100
AcDbSpline
210
0.0
220
0.0
230
1.0
 70
     8
 71
     3
 72
     8
 73
     4
 74
     0
 42
0.0000000001
 43
0.0000000001
 40
0.0
 40
0.0
 40
0.0
 40
0.0
 40
1.0
 40
1.0
 40
1.0
 40
1.0
 10
346.2648922920514
 20
70.81138568965491
 30
0.0
 10
348.602545459298
 20
70.81138568965491
 30
0.0
 10
350.4975877774198
 20
72.70642800777671
 30
0.0
 10
350.4975877774198
 20
75.04408117502298
 30
0.0
  0
CIRCLE
  5
164
330
70
100
AcDbEntity
  8
0
 62
    18
420
        0
370
    25
100
AcDbCircle
 10
344.5189054043372
 20
74.11817903759886
 30
0.0
 40
1.32271733917758
  0
CIRCLE
  5
165
330
70
100
AcDbEntity
  8
0
 62
    18
420
        0
370
    25
100
AcDbCircle
 10
348.9103269704066
 20
80.73176573348677
 30
0.0
 40
1.32271733917758
  0
CIRCLE
  5
166
330
70
100
AcDbEntity
  8
0
 62
    18
420
        0
370
    25
100
AcDbCircle
 10
348.9103269704066
 20
87.34535242937466
 30
0.0
 40
1.32271733917758
  0
CIRCLE
  5
167
330
70
100
AcDbEntity
  8
0
 62
    18
420
        0
370
    25
100
AcDbCircle
 10
344.5189054043372
 20
93.95893912526258
 30
0.0
 40
1.32271733917758
  0
CIRCLE
  5
168
330
70
100
AcDbEntity
  8
0
 62
    18
420
        0
370
    25
100
AcDbCircle
 10
344.518905404337
 20
74.11817903759886
 30
0.0
 40
0.7936304035064119
  0
CIRCLE
  5
169
330
70
100
AcDbEntity
  8
0
 62
    18
420
        0
370
    25
100
AcDbCircle
 10
348.9103269704066
 20
80.73176573348668
 30
0.0
 40
0.7936304035064922
  0
CIRCLE
  5
16A
330
70
100
AcDbEntity
  8
0
 62
    18
420
        0
370
    25
100
AcDbCircle
 10
348.9103269704066
 20
87.34535242937459
 30
0.0
 40
0.7936304035064922
  0
CIRCLE
  5
16B
330
70
100
AcDbEntity
  8
0
 62
    18
420
        0
370
    25
100
AcDbCircle
 10
344.5189054043372
 20
93.95893912526258
 30
0.0
 40
0.7936304035066124
  0
LINE
  5
16C
330
70
100
AcDbEntity
  8
0
 62
    18
420
        0
370
    25
100
AcDbLine
 10
342.1776957139928
 20
123.5785485014661
 30
0.0
 11
339.7042142897309
 21
123.5785485014661
 31
0.0
  0
LINE
  5
16D
330
70
100
AcDbEntity
  8
0
 62
    18
420
        0
370
    25
100
AcDbLine
 10
339.7042142897309
 20
118.3154562088786
 30
0.0
 11
342.1776957139928
 21
118.3154562088786
 31
0.0
  0
LINE
  5
16E
330
70
100
AcDbEntity
  8
0
 62
    18
420
        0
370
    25
100
AcDbLine
 10
342.1776957139928
 20
134.1510281935127
 30
0.0
 11
339.7042142897309
 21
134.1510281935127
 31
0.0
  0
LINE
  5
16F
330
70
100
AcDbEntity
  8
0
 62
    18
420
        0
370
    25
100
AcDbLine
 10
339.7042142897309
 20
128.887935900925
 30
0.0
 11
342.1776957139928
 21
128.887935900925
 31
0.0
  0
LINE
  5
170
330
70
100
AcDbEntity
  8
0
 62
    18
420
        0
370
    25
100
AcDbLine
 10
342.1776957139928
 20
113.00606880942
 30
0.0
 11
346.2648922920517
 21
113.00606880942
 31
0.0
  0
LINE
  5
171
330
70
100
AcDbEntity
  8
0
 62
    18
420
        0
370
    25
100
AcDbLine
 10
346.2648922920517
 20
139.4604155929716
 30
0.0
 11
342.1776957139928
 21
139.4604155929716
 31
0.0
  0
SPLINE
  5
172
330
70
100
AcDbEntity
  8
0
 62
    18
420
        0
370
    25
100
AcDbSpline
210
0.0
220
0.0
230
1.0
 70
     8
 71
     3
 72
     8
 73
     4
 74
     0
 42
0.0000000001
 43
0.0000000001
 40
0.0
 40
0.0
 40
0.0
 40
0.0
 40
1.0
 40
1.0
 40
1.0
 40
1.0
 10
350.4975877774201
 20
135.2277201076032
 30
0.0
 10
350.4975877774201
 20
137.5653732748498
 30
0.0
 10
348.6025454592983
 20
139.4604155929716
 30
0.0
 10
346.2648922920517
 20
139.4604155929716
 30
0.0
  0
LINE
  5
173
330
70
100
AcDbEntity
  8
0
 62
    18
420
        0
370
    25
100
AcDbLine
 10
350.4975877774201
 20
135.2277201076032
 30
0.0
 11
350.4975877774198
 21
117.238764294788
 31
0.0
  0
CIRCLE
  5
174
330
70
100
AcDbEntity
  8
0
 62
    18
420
        0
370
    25
100
AcDbCircle
 10
344.5189054043372
 20
116.3128621573639
 30
0.0
 40
1.32271733917758
  0
CIRCLE
  5
175
330
70
100
AcDbEntity
  8
0
 62
    18
420
        0
370
    25
100
AcDbCircle
 10
348.9103269704069
 20
122.9264488532518
 30
0.0
 40
1.32271733917758
  0
CIRCLE
  5
176
330
70
100
AcDbEntity
  8
0
 62
    18
420
        0
370
    25
100
AcDbCircle
 10
348.9103269704069
 20
129.5400355491397
 30
0.0
 40
1.32271733917758
  0
CIRCLE
  5
177
330
70
100
AcDbEntity
  8
0
 62
    18
420
        0
370
    25
100
AcDbCircle
 10
344.5189054043372
 20
136.1536222450276
 30
0.0
 40
1.32271733917758
  0
SPLINE
  5
178
330
70
100
AcDbEntity
  8
0
 62
    18
420
        0
370
    25
100
AcDbSpline
210
0.0
220
0.0
230
1.0
 70
     8
 71
     3
 72
     8
 73
     4
 74
     0
 42
0.0000000001
 43
0.0000000001
 40
0.0
 40
0.0
 40
0.0
 40
0.0
 40
1.0
 40
1.0
 40
1.0
 40
1.0
 10
346.2648922920517
 20
113.00606880942
 30
0.0
 10
348.6025454592983
 20
113.00606880942
 30
0.0
 10
350.4975877774198
 20
114.9011111275414
 30
0.0
 10
350.4975877774201
 20
117.238764294788
 30
0.0
  0
CIRCLE
  5
179
330
70
100
AcDbEntity
  8
0
 62
    18
420
        0
370
    25
100
AcDbCircle
 10
344.5189054043372
 20
116.3128621573638
 30
0.0
 40
0.7936304035063718
  0
CIRCLE
  5
17A
330
70
100
AcDbEntity
  8
0
 62
    18
420
        0
370
    25
100
AcDbCircle
 10
348.9103269704069
 20
122.9264488532517
 30
0.0
 40
0.7936304035064922
  0
CIRCLE
  5
17B
330
70
100
AcDbEntity
  8
0
 62
    18
420
        0
370
    25
100
AcDbCircle
 10
348.9103269704069
 20
129.5400355491397
 30
0.0
 40
0.7936304035066124
  0
CIRCLE
  5
17C
330
70
100
AcDbEntity
  8
0
 62
    18
420
        0
370
    25
100
AcDbCircle
 10
344.5189054043372
 20
136.1536222450276
 30
0.0
 40
0.793630403506492
  0
LINE
  5
17D
330
70
100
AcDbEntity
  8
0
 62
    18
420
        0
370
    25
100
AcDbLine
 10
342.1909228873844
 20
27.84952651316679
 30
0.0
 11
338.0111360955835
 21
27.84952651316679
 31
0.0
  0
LINE
  5
17E
330
70
100
AcDbEntity
  8
0
 62
    18
420
        0
370
    25
100
AcDbLine
 10
342.1603922674198
 20
27.82307216638291
 30
0.0
 11
342.1644685406008
 21
27.82307216638291
 31
0.0
  0
LINE
  5
17F
330
70
100
AcDbEntity
  8
0
 62
    18
420
        0
370
    25
100
AcDbLine
 10
338.0375904423667
 20
27.82307216638291
 30
0.0
 11
342.1603922674198
 21
27.82307216638291
 31
0.0
  0
LINE
  5
180
330
70
100
AcDbEntity
  8
0
 62
    18
420
        0
370
    25
100
AcDbLine
 10
342.1867943542911
 20
28.59024822310595
 30
0.0
 11
342.1909228873844
 21
28.59024822310595
 31
0.0
  0
LINE
  5
181
330
70
100
AcDbEntity
  8
0
 62
    18
420
        0
370
    25
100
AcDbLine
 10
338.0111360955835
 20
28.59024822310595
 30
0.0
 11
342.1867943542911
 21
28.59024822310595
 31
0.0
  0
LINE
  5
182
330
70
100
AcDbEntity
  8
0
 62
    18
420
        0
370
    25
100
AcDbLine
 10
339.8364860236485
 20
28.61670256988984
 30
0.0
 11
339.7042142897307
 21
28.61670256988984
 31
0.0
  0
LINE
  5
183
330
70
100
AcDbEntity
  8
0
 62
    18
420
        0
370
    25
100
AcDbLine
 10
338.0111360955831
 20
55.83822541016449
 30
0.0
 11
342.1909228873844
 21
55.83822541016449
 31
0.0
  0
LINE
  5
184
330
70
100
AcDbEntity
  8
0
 62
    18
420
        0
370
    25
100
AcDbLine
 10
342.1909228873844
 20
55.09750370022469
 30
0.0
 11
338.0111360955831
 21
55.09750370022469
 31
0.0
  0
LINE
  5
185
330
70
100
AcDbEntity
  8
0
 62
    18
420
        0
370
    25
100
AcDbLine
 10
339.7042142897307
 20
55.07104935344145
 30
0.0
 11
339.8364860236485
 21
55.07104935344145
 31
0.0
  0
LINE
  5
186
330
70
100
AcDbEntity
  8
0
 62
    18
420
        0
370
    25
100
AcDbLine
 10
342.1644685406008
 20
55.86467975694773
 30
0.0
 11
338.0375904423667
 21
55.86467975694773
 31
0.0
  0
LINE
  5
187
330
70
100
AcDbEntity
  8
0
 62
    18
420
        0
370
    25
100
AcDbLine
 10
342.1909228873844
 20
70.04420963293187
 30
0.0
 11
338.0111360955835
 21
70.04420963293187
 31
0.0
  0
LINE
  5
188
330
70
100
AcDbEntity
  8
0
 62
    18
420
        0
370
    25
100
AcDbLine
 10
342.1867943542911
 20
70.78493134287102
 30
0.0
 11
342.1909228873844
 21
70.78493134287102
 31
0.0
  0
LINE
  5
189
330
70
100
AcDbEntity
  8
0
 62
    18
420
        0
370
    25
100
AcDbLine
 10
338.0111360955835
 20
70.78493134287102
 30
0.0
 11
342.1867943542911
 21
70.78493134287102
 31
0.0
  0
LINE
  5
18A
330
70
100
AcDbEntity
  8
0
 62
    18
420
        0
370
    25
100
AcDbLine
 10
342.1603922674198
 20
70.01775528614797
 30
0.0
 11
342.1644685406008
 21
70.01775528614797
 31
0.0
  0
LINE
  5
18B
330
70
100
AcDbEntity
  8
0
 62
    18
420
        0
370
    25
100
AcDbLine
 10
338.0375904423667
 20
70.01775528614797
 30
0.0
 11
342.1603922674198
 21
70.01775528614797
 31
0.0
  0
LINE
  5
18C
330
70
100
AcDbEntity
  8
0
 62
    18
420
        0
370
    25
100
AcDbLine
 10
339.8364860236485
 20
70.81138568965491
 30
0.0
 11
339.7042142897307
 21
70.81138568965491
 31
0.0
  0
LINE
  5
18D
330
70
100
AcDbEntity
  8
0
 62
    18
420
        0
370
    25
100
AcDbLine
 10
339.7042142897309
 20
139.4604155929716
 30
0.0
 11
339.8364860236485
 21
139.4604155929716
 31
0.0
  0
LINE
  5
18E
330
70
100
AcDbEntity
  8
0
 62
    18
420
        0
370
    25
100
AcDbLine
 10
342.1909228873847
 20
139.4868699397551
 30
0.0
 11
338.0111360955835
 21
139.4868699397551
 31
0.0
  0
LINE
  5
18F
330
70
100
AcDbEntity
  8
0
 62
    18
420
        0
370
    25
100
AcDbLine
 10
338.0111360955835
 20
140.2275916496946
 30
0.0
 11
342.1909228873847
 21
140.2275916496946
 31
0.0
  0
LINE
  5
190
330
70
100
AcDbEntity
  8
0
 62
    18
420
        0
370
    25
100
AcDbLine
 10
342.1644685406012
 20
140.2540459964782
 30
0.0
 11
338.037590442367
 21
140.2540459964782
 31
0.0
  0
LINE
  5
191
330
70
100
AcDbEntity
  8
0
 62
    18
420
        0
370
    25
100
AcDbLine
 10
339.7042142897307
 20
97.26573247320652
 30
0.0
 11
339.8364860236485
 21
97.26573247320652
 31
0.0
  0
LINE
  5
192
330
70
100
AcDbEntity
  8
0
 62
    18
420
        0
370
    25
100
AcDbLine
 10
342.1909228873844
 20
97.29218681999007
 30
0.0
 11
338.0111360955831
 21
97.29218681999007
 31
0.0
  0
LINE
  5
193
330
70
100
AcDbEntity
  8
0
 62
    18
420
        0
370
    25
100
AcDbLine
 10
338.0111360955831
 20
98.03290852992958
 30
0.0
 11
342.1909228873844
 21
98.03290852992958
 31
0.0
  0
LINE
  5
194
330
70
100
AcDbEntity
  8
0
 62
    18
420
        0
370
    25
100
AcDbLine
 10
342.1644685406008
 20
98.05936287671315
 30
0.0
 11
338.0375904423667
 21
98.05936287671315
 31
0.0
  0
LINE
  5
195
330
70
100
AcDbEntity
  8
0
 62
    18
420
        0
370
    25
100
AcDbLine
 10
342.1909228873847
 20
112.2388927526969
 30
0.0
 11
338.0111360955835
 21
112.2388927526969
 31
0.0
  0
LINE
  5
196
330
70
100
AcDbEntity
  8
0
 62
    18
420
        0
370
    25
100
AcDbLine
 10
342.1603922674202
 20
112.2124384059133
 30
0.0
 11
342.1644685406012
 21
112.2124384059133
 31
0.0
  0
LINE
  5
197
330
70
100
AcDbEntity
  8
0
 62
    18
420
        0
370
    25
100
AcDbLine
 10
338.037590442367
 20
112.2124384059133
 30
0.0
 11
342.1603922674202
 21
112.2124384059133
 31
0.0
  0
LINE
  5
198
330
70
100
AcDbEntity
  8
0
 62
    18
420
        0
370
    25
100
AcDbLine
 10
342.1867943542911
 20
112.9796144626361
 30
0.0
 11
342.1909228873847
 21
112.9796144626361
 31
0.0
  0
LINE
  5
199
330
70
100
AcDbEntity
  8
0
 62
    18
420
        0
370
    25
100
AcDbLine
 10
338.0111360955835
 20
112.9796144626361
 30
0.0
 11
342.1867943542911
 21
112.9796144626361
 31
0.0
  0
LINE
  5
19A
330
70
100
AcDbEntity
  8
0
 62
    18
420
        0
370
    25
100
AcDbLine
 10
339.8364860236485
 20
113.00606880942
 30
0.0
 11
339.7042142897309
 21
113.00606880942
 31
0.0
  0
LINE
  5
19B
330
70
100
AcDbEntity
  8
0
 62
    18
420
        0
370
    25
100
AcDbLine
 10
374.3922363853088
 20
70.81138568965491
 30
0.0
 11
374.3922363853088
 21
76.1207730891135
 31
0.0
  0
LINE
  5
19C
330
70
100
AcDbEntity
  8
0
 62
    18
420
        0
370
    25
100
AcDbLine
 10
370.2389039402912
 20
76.1207730891135
 30
0.0
 11
370.2389039402912
 21
70.81138568965491
 31
0.0
  0
LINE
  5
19D
330
70
100
AcDbEntity
  8
0
 62
    18
420
        0
370
    25
100
AcDbLine
 10
374.3922363853088
 20
81.38386538170109
 30
0.0
 11
374.3922363853088
 21
86.69325278116001
 31
0.0
  0
LINE
  5
19E
330
70
100
AcDbEntity
  8
0
 62
    18
420
        0
370
    25
100
AcDbLine
 10
370.2389039402912
 20
86.69325278116001
 30
0.0
 11
370.2389039402912
 21
81.38386538170109
 31
0.0
  0
LINE
  5
19F
330
70
100
AcDbEntity
  8
0
 62
    18
420
        0
370
    25
100
AcDbLine
 10
374.3922363853088
 20
91.9563450737476
 30
0.0
 11
374.3922363853088
 21
97.26573247320652
 31
0.0
  0
LINE
  5
1A0
330
70
100
AcDbEntity
  8
0
 62
    18
420
        0
370
    25
100
AcDbLine
 10
370.2389039402912
 20
97.26573247320652
 30
0.0
 11
370.2389039402912
 21
91.9563450737476
 31
0.0
  0
LINE
  5
1A1
330
70
100
AcDbEntity
  8
0
 62
    18
420
        0
370
    25
100
AcDbLine
 10
374.3922363853088
 20
113.00606880942
 30
0.0
 11
374.3922363853088
 21
118.3154562088786
 31
0.0
  0
LINE
  5
1A2
330
70
100
AcDbEntity
  8
0
 62
    18
420
        0
370
    25
100
AcDbLine
 10
370.2389039402912
 20
118.3154562088786
 30
0.0
 11
370.2389039402912
 21
113.00606880942
 31
0.0
  0
LINE
  5
1A3
330
70
100
AcDbEntity
  8
0
 62
    18
420
        0
370
    25
100
AcDbLine
 10
374.3922363853088
 20
123.5785485014661
 30
0.0
 11
374.3922363853088
 21
128.887935900925
 31
0.0
  0
LINE
  5
1A4
330
70
100
AcDbEntity
  8
0
 62
    18
420
        0
370
    25
100
AcDbLine
 10
370.2389039402912
 20
128.887935900925
 30
0.0
 11
370.2389039402912
 21
123.5785485014661
 31
0.0
  0
LINE
  5
1A5
330
70
100
AcDbEntity
  8
0
 62
    18
420
        0
370
    25
100
AcDbLine
 10
374.3922363853088
 20
134.1510281935127
 30
0.0
 11
374.3922363853088
 21
139.4604155929716
 31
0.0
  0
LINE
  5
1A6
330
70
100
AcDbEntity
  8
0
 62
    18
420
        0
370
    25
100
AcDbLine
 10
370.2389039402912
 20
139.4604155929716
 30
0.0
 11
370.2389039402912
 21
134.1510281935127
 31
0.0
  0
LINE
  5
1A7
330
70
100
AcDbEntity
  8
0
 62
    18
420
        0
370
    25
100
AcDbLine
 10
374.3922363853088
 20
28.61670256988984
 30
0.0
 11
374.3922363853088
 21
33.92608996934843
 31
0.0
  0
LINE
  5
1A8
330
70
100
AcDbEntity
  8
0
 62
    18
420
        0
370
    25
100
AcDbLine
 10
370.2389039402912
 20
33.92608996934843
 30
0.0
 11
370.2389039402912
 21
28.61670256988984
 31
0.0
  0
LINE
  5
1A9
330
70
100
AcDbEntity
  8
0
 62
    18
420
        0
370
    25
100
AcDbLine
 10
374.3922363853088
 20
39.18918226193635
 30
0.0
 11
374.3922363853088
 21
44.49856966139494
 31
0.0
  0
LINE
  5
1AA
330
70
100
AcDbEntity
  8
0
 62
    18
420
        0
370
    25
100
AcDbLine
 10
370.2389039402912
 20
44.49856966139494
 30
0.0
 11
370.2389039402912
 21
39.18918226193635
 31
0.0
  0
LINE
  5
1AB
330
70
100
AcDbEntity
  8
0
 62
    18
420
        0
370
    25
100
AcDbLine
 10
374.3922363853088
 20
49.76166195398285
 30
0.0
 11
374.3922363853088
 21
55.07104935344145
 31
0.0
  0
LINE
  5
1AC
330
70
100
AcDbEntity
  8
0
 62
    18
420
        0
370
    25
100
AcDbLine
 10
370.2389039402912
 20
55.07104935344145
 30
0.0
 11
370.2389039402912
 21
49.76166195398285
 31
0.0
  0
LINE
  5
1AD
330
70
100
AcDbEntity
  8
0
 62
    18
420
        0
370
    25
100
AcDbLine
 10
370.2389039402912
 20
39.18918226193635
 30
0.0
 11
370.2389039402912
 21
33.92608996934843
 31
0.0
  0
LINE
  5
1AE
330
70
100
AcDbEntity
  8
0
 62
    18
420
        0
370
    25
100
AcDbLine
 10
374.3922363853088
 20
33.92608996934843
 30
0.0
 11
374.3922363853088
 21
39.18918226193635
 31
0.0
  0
LINE
  5
1AF
330
70
100
AcDbEntity
  8
0
 62
    18
420
        0
370
    25
100
AcDbLine
 10
370.2389039402912
 20
49.76166195398285
 30
0.0
 11
370.2389039402912
 21
44.49856966139494
 31
0.0
  0
LINE
  5
1B0
330
70
100
AcDbEntity
  8
0
 62
    18
420
        0
370
    25
100
AcDbLine
 10
374.3922363853088
 20
44.49856966139494
 30
0.0
 11
374.3922363853088
 21
49.76166195398285
 31
0.0
  0
LINE
  5
1B1
330
70
100
AcDbEntity
  8
0
 62
    18
420
        0
370
    25
100
AcDbLine
 10
370.2389039402912
 20
81.38386538170143
 30
0.0
 11
370.2389039402912
 21
76.12077308911382
 31
0.0
  0
LINE
  5
1B2
330
70
100
AcDbEntity
  8
0
 62
    18
420
        0
370
    25
100
AcDbLine
 10
374.3922363853088
 20
76.12077308911382
 30
0.0
 11
374.3922363853088
 21
81.38386538170143
 31
0.0
  0
LINE
  5
1B3
330
70
100
AcDbEntity
  8
0
 62
    18
420
        0
370
    25
100
AcDbLine
 10
370.2389039402912
 20
91.9563450737476
 30
0.0
 11
370.2389039402912
 21
86.69325278116001
 31
0.0
  0
LINE
  5
1B4
330
70
100
AcDbEntity
  8
0
 62
    18
420
        0
370
    25
100
AcDbLine
 10
374.3922363853088
 20
86.69325278116001
 30
0.0
 11
374.3922363853088
 21
91.9563450737476
 31
0.0
  0
LINE
  5
1B5
330
70
100
AcDbEntity
  8
0
 62
    18
420
        0
370
    25
100
AcDbLine
 10
370.2389039402912
 20
123.5785485014665
 30
0.0
 11
370.2389039402912
 21
118.3154562088789
 31
0.0
  0
LINE
  5
1B6
330
70
100
AcDbEntity
  8
0
 62
    18
420
        0
370
    25
100
AcDbLine
 10
374.3922363853088
 20
118.3154562088789
 30
0.0
 11
374.3922363853088
 21
123.5785485014665
 31
0.0
  0
LINE
  5
1B7
330
70
100
AcDbEntity
  8
0
 62
    18
420
        0
370
    25
100
AcDbLine
 10
370.2389039402912
 20
134.1510281935127
 30
0.0
 11
370.2389039402912
 21
128.887935900925
 31
0.0
  0
LINE
  5
1B8
330
70
100
AcDbEntity
  8
0
 62
    18
420
        0
370
    25
100
AcDbLine
 10
374.3922363853088
 20
128.887935900925
 30
0.0
 11
374.3922363853088
 21
134.1510281935127
 31
0.0
  0
LINE
  5
1B9
330
70
100
AcDbEntity
  8
0
 62
    18
420
        0
370
    25
100
AcDbLine
 10
370.2256767668995
 20
27.84952651316679
 30
0.0
 11
370.2521311136831
 21
27.82307216638291
 31
0.0
  0
LINE
  5
1BA
330
70
100
AcDbEntity
  8
0
 62
    18
420
        0
370
    25
100
AcDbLine
 10
374.3790092119169
 20
27.82307216638291
 30
0.0
 11
374.4054635587008
 21
27.84952651316679
 31
0.0
  0
LINE
  5
1BB
330
70
100
AcDbEntity
  8
0
 62
    18
420
        0
370
    25
100
AcDbLine
 10
374.4054635587008
 20
27.84952651316679
 30
0.0
 11
374.4054635587008
 21
28.59024822310595
 31
0.0
  0
LINE
  5
1BC
330
70
100
AcDbEntity
  8
0
 62
    18
420
        0
370
    25
100
AcDbLine
 10
370.2256767668995
 20
28.59024822310595
 30
0.0
 11
370.2256767668995
 21
27.84952651316679
 31
0.0
  0
LINE
  5
1BD
330
70
100
AcDbEntity
  8
0
 62
    18
420
        0
370
    25
100
AcDbLine
 10
374.4054635587008
 20
28.59024822310595
 30
0.0
 11
374.3790092119172
 21
28.61670256988984
 31
0.0
  0
LINE
  5
1BE
330
70
100
AcDbEntity
  8
0
 62
    18
420
        0
370
    25
100
AcDbLine
 10
370.2521311136828
 20
28.61670256988984
 30
0.0
 11
370.2256767668995
 21
28.59024822310595
 31
0.0
  0
LINE
  5
1BF
330
70
100
AcDbEntity
  8
0
 62
    18
420
        0
370
    25
100
AcDbLine
 10
370.2256767668995
 20
55.83822541016449
 30
0.0
 11
370.2256767668995
 21
55.09750370022533
 31
0.0
  0
LINE
  5
1C0
330
70
100
AcDbEntity
  8
0
 62
    18
420
        0
370
    25
100
AcDbLine
 10
374.4054635587008
 20
55.09750370022533
 30
0.0
 11
374.4054635587008
 21
55.83822541016449
 31
0.0
  0
LINE
  5
1C1
330
70
100
AcDbEntity
  8
0
 62
    18
420
        0
370
    25
100
AcDbLine
 10
370.2256767668995
 20
55.09750370022469
 30
0.0
 11
370.2521311136831
 21
55.07104935344145
 31
0.0
  0
LINE
  5
1C2
330
70
100
AcDbEntity
  8
0
 62
    18
420
        0
370
    25
100
AcDbLine
 10
374.3790092119172
 20
55.07104935344145
 30
0.0
 11
374.4054635587008
 21
55.09750370022469
 31
0.0
  0
LINE
  5
1C3
330
70
100
AcDbEntity
  8
0
 62
    18
420
        0
370
    25
100
AcDbLine
 10
374.4054635587008
 20
55.83822541016449
 30
0.0
 11
374.3790092119172
 21
55.86467975694773
 31
0.0
  0
LINE
  5
1C4
330
70
100
AcDbEntity
  8
0
 62
    18
420
        0
370
    25
100
AcDbLine
 10
370.2521311136831
 20
55.86467975694773
 30
0.0
 11
370.2256767668995
 21
55.83822541016449
 31
0.0
  0
LINE
  5
1C5
330
70
100
AcDbEntity
  8
0
 62
    18
420
        0
370
    25
100
AcDbLine
 10
374.4054635587008
 20
70.04420963293187
 30
0.0
 11
374.4054635587008
 21
70.78493134287102
 31
0.0
  0
LINE
  5
1C6
330
70
100
AcDbEntity
  8
0
 62
    18
420
        0
370
    25
100
AcDbLine
 10
370.2256767668995
 20
70.78493134287102
 30
0.0
 11
370.2256767668995
 21
70.04420963293187
 31
0.0
  0
LINE
  5
1C7
330
70
100
AcDbEntity
  8
0
 62
    18
420
        0
370
    25
100
AcDbLine
 10
370.2256767668995
 20
70.04420963293187
 30
0.0
 11
370.2521311136831
 21
70.01775528614797
 31
0.0
  0
LINE
  5
1C8
330
70
100
AcDbEntity
  8
0
 62
    18
420
        0
370
    25
100
AcDbLine
 10
374.3790092119169
 20
70.01775528614797
 30
0.0
 11
374.4054635587008
 21
70.04420963293187
 31
0.0
  0
LINE
  5
1C9
330
70
100
AcDbEntity
  8
0
 62
    18
420
        0
370
    25
100
AcDbLine
 10
374.4054635587008
 20
70.78493134287102
 30
0.0
 11
374.3790092119172
 21
70.81138568965491
 31
0.0
  0
LINE
  5
1CA
330
70
100
AcDbEntity
  8
0
 62
    18
420
        0
370
    25
100
AcDbLine
 10
370.2521311136828
 20
70.81138568965491
 30
0.0
 11
370.2256767668995
 21
70.78493134287102
 31
0.0
  0
LINE
  5
1CB
330
70
100
AcDbEntity
  8
0
 62
    18
420
        0
370
    25
100
AcDbLine
 10
370.2256767668995
 20
140.2275916496946
 30
0.0
 11
370.2256767668995
 21
139.4868699397551
 31
0.0
  0
LINE
  5
1CC
330
70
100
AcDbEntity
  8
0
 62
    18
420
        0
370
    25
100
AcDbLine
 10
374.4054635587008
 20
139.4868699397551
 30
0.0
 11
374.4054635587008
 21
140.2275916496946
 31
0.0
  0
LINE
  5
1CD
330
70
100
AcDbEntity
  8
0
 62
    18
420
        0
370
    25
100
AcDbLine
 10
370.2256767668995
 20
139.4868699397551
 30
0.0
 11
370.2521311136831
 21
139.4604155929716
 31
0.0
  0
LINE
  5
1CE
330
70
100
AcDbEntity
  8
0
 62
    18
420
        0
370
    25
100
AcDbLine
 10
374.3790092119172
 20
139.4604155929716
 30
0.0
 11
374.4054635587008
 21
139.4868699397551
 31
0.0
  0
LINE
  5
1CF
330
70
100
AcDbEntity
  8
0
 62
    18
420
        0
370
    25
100
AcDbLine
 10
374.4054635587008
 20
140.2275916496946
 30
0.0
 11
374.3790092119172
 21
140.2540459964782
 31
0.0
  0
LINE
  5
1D0
330
70
100
AcDbEntity
  8
0
 62
    18
420
        0
370
    25
100
AcDbLine
 10
370.2521311136831
 20
140.2540459964782
 30
0.0
 11
370.2256767668995
 21
140.2275916496946
 31
0.0
  0
LINE
  5
1D1
330
70
100
AcDbEntity
  8
0
 62
    18
420
        0
370
    25
100
AcDbLine
 10
370.2256767668995
 20
97.29218681999007
 30
0.0
 11
370.2521311136831
 21
97.26573247320652
 31
0.0
  0
LINE
  5
1D2
330
70
100
AcDbEntity
  8
0
 62
    18
420
        0
370
    25
100
AcDbLine
 10
374.3790092119172
 20
97.26573247320652
 30
0.0
 11
374.4054635587008
 21
97.29218681999007
 31
0.0
  0
LINE
  5
1D3
330
70
100
AcDbEntity
  8
0
 62
    18
420
        0
370
    25
100
AcDbLine
 10
370.2256767668995
 20
98.03290852992958
 30
0.0
 11
370.2256767668995
 21
97.29218681999007
 31
0.0
  0
LINE
  5
1D4
330
70
100
AcDbEntity
  8
0
 62
    18
420
        0
370
    25
100
AcDbLine
 10
374.4054635587008
 20
97.29218681999007
 30
0.0
 11
374.4054635587008
 21
98.03290852992958
 31
0.0
  0
LINE
  5
1D5
330
70
100
AcDbEntity
  8
0
 62
    18
420
        0
370
    25
100
AcDbLine
 10
374.4054635587008
 20
98.03290852992958
 30
0.0
 11
374.3790092119172
 21
98.05936287671315
 31
0.0
  0
LINE
  5
1D6
330
70
100
AcDbEntity
  8
0
 62
    18
420
        0
370
    25
100
AcDbLine
 10
370.2521311136831
 20
98.05936287671315
 30
0.0
 11
370.2256767668995
 21
98.03290852992958
 31
0.0
  0
LINE
  5
1D7
330
70
100
AcDbEntity
  8
0
 62
    18
420
        0
370
    25
100
AcDbLine
 10
370.2256767668995
 20
112.2388927526969
 30
0.0
 11
370.2521311136831
 21
112.2124384059133
 31
0.0
  0
LINE
  5
1D8
330
70
100
AcDbEntity
  8
0
 62
    18
420
        0
370
    25
100
AcDbLine
 10
374.3790092119172
 20
112.2124384059133
 30
0.0
 11
374.4054635587008
 21
112.2388927526969
 31
0.0
  0
LINE
  5
1D9
330
70
100
AcDbEntity
  8
0
 62
    18
420
        0
370
    25
100
AcDbLine
 10
374.4054635587008
 20
112.2388927526969
 30
0.0
 11
374.4054635587008
 21
112.9796144626361
 31
0.0
  0
LINE
  5
1DA
330
70
100
AcDbEntity
  8
0
 62
    18
420
        0
370
    25
100
AcDbLine
 10
370.2256767668995
 20
112.9796144626361
 30
0.0
 11
370.2256767668995
 21
112.2388927526969
 31
0.0
  0
LINE
  5
1DB
330
70
100
AcDbEntity
  8
0
 62
    18
420
        0
370
    25
100
AcDbLine
 10
374.4054635587008
 20
112.9796144626364
 30
0.0
 11
374.3790092119172
 21
113.0060688094196
 31
0.0
  0
LINE
  5
1DC
330
70
100
AcDbEntity
  8
0
 62
    18
420
        0
370
    25
100
AcDbLine
 10
370.2521311136831
 20
113.0060688094196
 30
0.0
 11
370.2256767668995
 21
112.9796144626364
 31
0.0
  0
LINE
  5
1DD
330
70
100
AcDbEntity
  8
0
 62
    18
420
        0
370
    25
100
AcDbLine
 10
370.2389039402912
 20
70.81138568965491
 30
0.0
 11
372.7123853645533
 21
70.81138568965491
 31
0.0
  0
LINE
  5
1DE
330
70
100
AcDbEntity
  8
0
 62
    18
420
        0
370
    25
100
AcDbLine
 10
373.5060157680599
 20
70.81138568965491
 30
0.0
 11
374.3922363853088
 21
70.81138568965491
 31
0.0
  0
LINE
  5
1DF
330
70
100
AcDbEntity
  8
0
 62
    18
420
        0
370
    25
100
AcDbLine
 10
374.3922363853088
 20
76.1207730891135
 30
0.0
 11
373.5590828708891
 21
76.1207730891135
 31
0.0
  0
LINE
  5
1E0
330
70
100
AcDbEntity
  8
0
 62
    18
420
        0
370
    25
100
AcDbLine
 10
372.7123853645533
 20
76.1207730891135
 30
0.0
 11
370.2389039402912
 21
76.1207730891135
 31
0.0
  0
LINE
  5
1E1
330
70
100
AcDbEntity
  8
0
 62
    18
420
        0
370
    25
100
AcDbLine
 10
374.3922363853088
 20
86.69325278116001
 30
0.0
 11
373.5590828708891
 21
86.69325278116001
 31
0.0
  0
LINE
  5
1E2
330
70
100
AcDbEntity
  8
0
 62
    18
420
        0
370
    25
100
AcDbLine
 10
372.7123853645533
 20
86.69325278116001
 30
0.0
 11
370.2389039402912
 21
86.69325278116001
 31
0.0
  0
LINE
  5
1E3
330
70
100
AcDbEntity
  8
0
 62
    18
420
        0
370
    25
100
AcDbLine
 10
370.2389039402912
 20
81.38386538170109
 30
0.0
 11
372.7123853645533
 21
81.38386538170109
 31
0.0
  0
LINE
  5
1E4
330
70
100
AcDbEntity
  8
0
 62
    18
420
        0
370
    25
100
AcDbLine
 10
373.5590828708891
 20
81.38386538170109
 30
0.0
 11
374.3922363853088
 21
81.38386538170109
 31
0.0
  0
LINE
  5
1E5
330
70
100
AcDbEntity
  8
0
 62
    18
420
        0
370
    25
100
AcDbLine
 10
374.3922363853088
 20
97.26573247320652
 30
0.0
 11
373.5060157680599
 21
97.26573247320652
 31
0.0
  0
LINE
  5
1E6
330
70
100
AcDbEntity
  8
0
 62
    18
420
        0
370
    25
100
AcDbLine
 10
372.7123853645533
 20
97.26573247320652
 30
0.0
 11
370.2389039402912
 21
97.26573247320652
 31
0.0
  0
LINE
  5
1E7
330
70
100
AcDbEntity
  8
0
 62
    18
420
        0
370
    25
100
AcDbLine
 10
370.2389039402912
 20
91.9563450737476
 30
0.0
 11
372.7123853645533
 21
91.9563450737476
 31
0.0
  0
LINE
  5
1E8
330
70
100
AcDbEntity
  8
0
 62
    18
420
        0
370
    25
100
AcDbLine
 10
373.5590828708891
 20
91.9563450737476
 30
0.0
 11
374.3922363853088
 21
91.9563450737476
 31
0.0
  0
LINE
  5
1E9
330
70
100
AcDbEntity
  8
0
 62
    18
420
        0
370
    25
100
AcDbLine
 10
361.9190118768642
 20
75.04408117502298
 30
0.0
 11
361.9190118768642
 21
93.03303698783812
 31
0.0
  0
SPLINE
  5
1EA
330
70
100
AcDbEntity
  8
0
 62
    18
420
        0
370
    25
100
AcDbSpline
210
0.0
220
0.0
230
1.0
 70
     8
 71
     3
 72
     8
 73
     4
 74
     0
 42
0.0000000001
 43
0.0000000001
 40
0.0
 40
0.0
 40
0.0
 40
0.0
 40
1.0
 40
1.0
 40
1.0
 40
1.0
 10
366.1517073622325
 20
97.26573247320652
 30
0.0
 10
363.814054194986
 20
97.26573247320652
 30
0.0
 10
361.9190118768642
 20
95.37069015508473
 30
0.0
 10
361.9190118768642
 20
93.03303698783812
 30
0.0
  0
SPLINE
  5
1EB
330
70
100
AcDbEntity
  8
0
 62
    18
420
        0
370
    25
100
AcDbSpline
210
0.0
220
0.0
230
1.0
 70
     8
 71
     3
 72
     8
 73
     4
 74
     0
 42
0.0000000001
 43
0.0000000001
 40
0.0
 40
0.0
 40
0.0
 40
0.0
 40
1.0
 40
1.0
 40
1.0
 40
1.0
 10
361.9190118768642
 20
75.04408117502298
 30
0.0
 10
361.9190118768642
 20
72.70642800777671
 30
0.0
 10
363.814054194986
 20
70.81138568965491
 30
0.0
 10
366.1517073622325
 20
70.81138568965491
 30
0.0
  0
CIRCLE
  5
1EC
330
70
100
AcDbEntity
  8
0
 62
    18
420
        0
370
    25
100
AcDbCircle
 10
367.8976942499472
 20
74.11817903759886
 30
0.0
 40
1.32271733917758
  0
CIRCLE
  5
1ED
330
70
100
AcDbEntity
  8
0
 62
    18
420
        0
370
    25
100
AcDbCircle
 10
363.5062726838774
 20
80.73176573348677
 30
0.0
 40
1.32271733917758
  0
CIRCLE
  5
1EE
330
70
100
AcDbEntity
  8
0
 62
    18
420
        0
370
    25
100
AcDbCircle
 10
363.5062726838774
 20
87.34535242937466
 30
0.0
 40
1.32271733917758
  0
CIRCLE
  5
1EF
330
70
100
AcDbEntity
  8
0
 62
    18
420
        0
370
    25
100
AcDbCircle
 10
367.8976942499472
 20
93.95893912526258
 30
0.0
 40
1.32271733917758
  0
LINE
  5
1F0
330
70
100
AcDbEntity
  8
0
 62
    18
420
        0
370
    25
100
AcDbLine
 10
370.2389039402912
 20
97.26573247320652
 30
0.0
 11
366.1517073622325
 21
97.26573247320652
 31
0.0
  0
LINE
  5
1F1
330
70
100
AcDbEntity
  8
0
 62
    18
420
        0
370
    25
100
AcDbLine
 10
366.1517073622325
 20
70.81138568965491
 30
0.0
 11
370.2389039402912
 21
70.81138568965491
 31
0.0
  0
CIRCLE
  5
1F2
330
70
100
AcDbEntity
  8
0
 62
    18
420
        0
370
    25
100
AcDbCircle
 10
367.897694249947
 20
74.11817903759871
 30
0.0
 40
0.7936304035064922
  0
CIRCLE
  5
1F3
330
70
100
AcDbEntity
  8
0
 62
    18
420
        0
370
    25
100
AcDbCircle
 10
363.5062726838774
 20
80.73176573348668
 30
0.0
 40
0.7936304035064922
  0
CIRCLE
  5
1F4
330
70
100
AcDbEntity
  8
0
 62
    18
420
        0
370
    25
100
AcDbCircle
 10
363.5062726838774
 20
87.34535242937459
 30
0.0
 40
0.7936304035064922
  0
CIRCLE
  5
1F5
330
70
100
AcDbEntity
  8
0
 62
    18
420
        0
370
    25
100
AcDbCircle
 10
367.897694249947
 20
93.95893912526258
 30
0.0
 40
0.7936304035065724
  0
LINE
  5
1F6
330
70
100
AcDbEntity
  8
0
 62
    18
420
        0
370
    25
100
AcDbLine
 10
370.2389039402912
 20
113.00606880942
 30
0.0
 11
372.7123853645533
 21
113.0060688094196
 31
0.0
  0
LINE
  5
1F7
330
70
100
AcDbEntity
  8
0
 62
    18
420
        0
370
    25
100
AcDbLine
 10
373.5060157680599
 20
113.00606880942
 30
0.0
 11
374.3922363853088
 21
113.00606880942
 31
0.0
  0
LINE
  5
1F8
330
70
100
AcDbEntity
  8
0
 62
    18
420
        0
370
    25
100
AcDbLine
 10
374.3922363853088
 20
118.3154562088786
 30
0.0
 11
373.5590828708891
 21
118.3154562088786
 31
0.0
  0
LINE
  5
1F9
330
70
100
AcDbEntity
  8
0
 62
    18
420
        0
370
    25
100
AcDbLine
 10
372.7123853645533
 20
118.3154562088786
 30
0.0
 11
370.2389039402912
 21
118.3154562088786
 31
0.0
  0
LINE
  5
1FA
330
70
100
AcDbEntity
  8
0
 62
    18
420
        0
370
    25
100
AcDbLine
 10
374.3922363853088
 20
128.887935900925
 30
0.0
 11
373.5590828708891
 21
128.887935900925
 31
0.0
  0
LINE
  5
1FB
330
70
100
AcDbEntity
  8
0
 62
    18
420
        0
370
    25
100
AcDbLine
 10
372.7123853645533
 20
128.887935900925
 30
0.0
 11
370.2389039402912
 21
128.887935900925
 31
0.0
  0
LINE
  5
1FC
330
70
100
AcDbEntity
  8
0
 62
    18
420
        0
370
    25
100
AcDbLine
 10
370.2389039402912
 20
123.5785485014661
 30
0.0
 11
372.7123853645533
 21
123.5785485014661
 31
0.0
  0
LINE
  5
1FD
330
70
100
AcDbEntity
  8
0
 62
    18
420
        0
370
    25
100
AcDbLine
 10
373.5590828708891
 20
123.5785485014661
 30
0.0
 11
374.3922363853088
 21
123.5785485014661
 31
0.0
  0
LINE
  5
1FE
330
70
100
AcDbEntity
  8
0
 62
    18
420
        0
370
    25
100
AcDbLine
 10
374.3922363853088
 20
139.4604155929716
 30
0.0
 11
373.5060157680599
 21
139.4604155929716
 31
0.0
  0
LINE
  5
1FF
330
70
100
AcDbEntity
  8
0
 62
    18
420
        0
370
    25
100
AcDbLine
 10
372.7123853645533
 20
139.4604155929716
 30
0.0
 11
370.2389039402912
 21
139.4604155929716
 31
0.0
  0
LINE
  5
200
330
70
100
AcDbEntity
  8
0
 62
    18
420
        0
370
    25
100
AcDbLine
 10
370.2389039402912
 20
134.1510281935127
 30
0.0
 11
372.7123853645533
 21
134.1510281935127
 31
0.0
  0
LINE
  5
201
330
70
100
AcDbEntity
  8
0
 62
    18
420
        0
370
    25
100
AcDbLine
 10
373.5590828708891
 20
134.1510281935127
 30
0.0
 11
374.3922363853088
 21
134.1510281935127
 31
0.0
  0
LINE
  5
202
330
70
100
AcDbEntity
  8
0
 62
    18
420
        0
370
    25
100
AcDbLine
 10
361.9190118768642
 20
117.238764294788
 30
0.0
 11
361.9190118768642
 21
135.2277201076032
 31
0.0
  0
SPLINE
  5
203
330
70
100
AcDbEntity
  8
0
 62
    18
420
        0
370
    25
100
AcDbSpline
210
0.0
220
0.0
230
1.0
 70
     8
 71
     3
 72
     8
 73
     4
 74
     0
 42
0.0000000001
 43
0.0000000001
 40
0.0
 40
0.0
 40
0.0
 40
0.0
 40
1.0
 40
1.0
 40
1.0
 40
1.0
 10
366.1517073622325
 20
139.4604155929716
 30
0.0
 10
363.814054194986
 20
139.4604155929716
 30
0.0
 10
361.9190118768642
 20
137.5653732748498
 30
0.0
 10
361.9190118768642
 20
135.2277201076032
 30
0.0
  0
SPLINE
  5
204
330
70
100
AcDbEntity
  8
0
 62
    18
420
        0
370
    25
100
AcDbSpline
210
0.0
220
0.0
230
1.0
 70
     8
 71
     3
 72
     8
 73
     4
 74
     0
 42
0.0000000001
 43
0.0000000001
 40
0.0
 40
0.0
 40
0.0
 40
0.0
 40
1.0
 40
1.0
 40
1.0
 40
1.0
 10
361.9190118768642
 20
117.238764294788
 30
0.0
 10
361.9190118768642
 20
114.9011111275414
 30
0.0
 10
363.814054194986
 20
113.00606880942
 30
0.0
 10
366.1517073622325
 20
113.00606880942
 30
0.0
  0
CIRCLE
  5
205
330
70
100
AcDbEntity
  8
0
 62
    18
420
        0
370
    25
100
AcDbCircle
 10
367.8976942499472
 20
116.3128621573639
 30
0.0
 40
1.32271733917758
  0
CIRCLE
  5
206
330
70
100
AcDbEntity
  8
0
 62
    18
420
        0
370
    25
100
AcDbCircle
 10
363.5062726838774
 20
122.9264488532518
 30
0.0
 40
1.32271733917758
  0
CIRCLE
  5
207
330
70
100
AcDbEntity
  8
0
 62
    18
420
        0
370
    25
100
AcDbCircle
 10
363.5062726838774
 20
129.5400355491397
 30
0.0
 40
1.32271733917758
  0
CIRCLE
  5
208
330
70
100
AcDbEntity
  8
0
 62
    18
420
        0
370
    25
100
AcDbCircle
 10
367.8976942499472
 20
136.1536222450276
 30
0.0
 40
1.32271733917758
  0
LINE
  5
209
330
70
100
AcDbEntity
  8
0
 62
    18
420
        0
370
    25
100
AcDbLine
 10
370.2389039402912
 20
139.4604155929716
 30
0.0
 11
366.1517073622325
 21
139.4604155929716
 31
0.0
  0
LINE
  5
20A
330
70
100
AcDbEntity
  8
0
 62
    18
420
        0
370
    25
100
AcDbLine
 10
366.1517073622325
 20
113.00606880942
 30
0.0
 11
370.2389039402912
 21
113.00606880942
 31
0.0
  0
CIRCLE
  5
20B
330
70
100
AcDbEntity
  8
0
 62
    18
420
        0
370
    25
100
AcDbCircle
 10
367.897694249947
 20
116.3128621573638
 30
0.0
 40
0.793630403506452
  0
CIRCLE
  5
20C
330
70
100
AcDbEntity
  8
0
 62
    18
420
        0
370
    25
100
AcDbCircle
 10
363.5062726838774
 20
122.9264488532517
 30
0.0
 40
0.7936304035064922
  0
CIRCLE
  5
20D
330
70
100
AcDbEntity
  8
0
 62
    18
420
        0
370
    25
100
AcDbCircle
 10
363.5062726838774
 20
129.5400355491397
 30
0.0
 40
0.7936304035066124
  0
CIRCLE
  5
20E
330
70
100
AcDbEntity
  8
0
 62
    18
420
        0
370
    25
100
AcDbCircle
 10
367.897694249947
 20
136.1536222450276
 30
0.0
 40
0.7936304035065724
  0
LINE
  5
20F
330
70
100
AcDbEntity
  8
0
 62
    18
420
        0
370
    25
100
AcDbLine
 10
370.2389039402912
 20
28.61670256988984
 30
0.0
 11
372.7123853645533
 21
28.61670256988984
 31
0.0
  0
LINE
  5
210
330
70
100
AcDbEntity
  8
0
 62
    18
420
        0
370
    25
100
AcDbLine
 10
373.5060157680599
 20
28.61670256988984
 30
0.0
 11
374.3922363853088
 21
28.61670256988984
 31
0.0
  0
LINE
  5
211
330
70
100
AcDbEntity
  8
0
 62
    18
420
        0
370
    25
100
AcDbLine
 10
374.3922363853088
 20
33.92608996934843
 30
0.0
 11
373.5590828708891
 21
33.92608996934843
 31
0.0
  0
LINE
  5
212
330
70
100
AcDbEntity
  8
0
 62
    18
420
        0
370
    25
100
AcDbLine
 10
372.7123853645533
 20
33.92608996934843
 30
0.0
 11
370.2389039402912
 21
33.92608996934843
 31
0.0
  0
LINE
  5
213
330
70
100
AcDbEntity
  8
0
 62
    18
420
        0
370
    25
100
AcDbLine
 10
374.3922363853088
 20
44.49856966139494
 30
0.0
 11
373.5590828708891
 21
44.49856966139494
 31
0.0
  0
LINE
  5
214
330
70
100
AcDbEntity
  8
0
 62
    18
420
        0
370
    25
100
AcDbLine
 10
372.7123853645533
 20
44.49856966139494
 30
0.0
 11
370.2389039402912
 21
44.49856966139494
 31
0.0
  0
LINE
  5
215
330
70
100
AcDbEntity
  8
0
 62
    18
420
        0
370
    25
100
AcDbLine
 10
370.2389039402912
 20
39.18918226193635
 30
0.0
 11
372.7123853645533
 21
39.18918226193635
 31
0.0
  0
LINE
  5
216
330
70
100
AcDbEntity
  8
0
 62
    18
420
        0
370
    25
100
AcDbLine
 10
373.5590828708891
 20
39.18918226193635
 30
0.0
 11
374.3922363853088
 21
39.18918226193635
 31
0.0
  0
LINE
  5
217
330
70
100
AcDbEntity
  8
0
 62
    18
420
        0
370
    25
100
AcDbLine
 10
374.3922363853088
 20
55.07104935344145
 30
0.0
 11
373.5060157680599
 21
55.07104935344145
 31
0.0
  0
LINE
  5
218
330
70
100
AcDbEntity
  8
0
 62
    18
420
        0
370
    25
100
AcDbLine
 10
372.7123853645533
 20
55.07104935344145
 30
0.0
 11
370.2389039402912
 21
55.07104935344145
 31
0.0
  0
LINE
  5
219
330
70
100
AcDbEntity
  8
0
 62
    18
420
        0
370
    25
100
AcDbLine
 10
370.2389039402912
 20
49.76166195398285
 30
0.0
 11
372.7123853645533
 21
49.76166195398285
 31
0.0
  0
LINE
  5
21A
330
70
100
AcDbEntity
  8
0
 62
    18
420
        0
370
    25
100
AcDbLine
 10
373.5590828708891
 20
49.76166195398285
 30
0.0
 11
374.3922363853088
 21
49.76166195398285
 31
0.0
  0
LINE
  5
21B
330
70
100
AcDbEntity
  8
0
 62
    18
420
        0
370
    25
100
AcDbLine
 10
361.9190118768642
 20
32.84939805525823
 30
0.0
 11
361.9190118768642
 21
50.83835386807306
 31
0.0
  0
SPLINE
  5
21C
330
70
100
AcDbEntity
  8
0
 62
    18
420
        0
370
    25
100
AcDbSpline
210
0.0
220
0.0
230
1.0
 70
     8
 71
     3
 72
     8
 73
     4
 74
     0
 42
0.0000000001
 43
0.0000000001
 40
0.0
 40
0.0
 40
0.0
 40
0.0
 40
1.0
 40
1.0
 40
1.0
 40
1.0
 10
366.1517073622325
 20
55.07104935344145
 30
0.0
 10
363.814054194986
 20
55.07104935344145
 30
0.0
 10
361.9190118768642
 20
53.17600703531965
 30
0.0
 10
361.9190118768642
 20
50.83835386807306
 30
0.0
  0
SPLINE
  5
21D
330
70
100
AcDbEntity
  8
0
 62
    18
420
        0
370
    25
100
AcDbSpline
210
0.0
220
0.0
230
1.0
 70
     8
 71
     3
 72
     8
 73
     4
 74
     0
 42
0.0000000001
 43
0.0000000001
 40
0.0
 40
0.0
 40
0.0
 40
0.0
 40
1.0
 40
1.0
 40
1.0
 40
1.0
 10
361.9190118768642
 20
32.84939805525823
 30
0.0
 10
361.9190118768642
 20
30.51174488801163
 30
0.0
 10
363.814054194986
 20
28.61670256988984
 30
0.0
 10
366.1517073622325
 20
28.61670256988984
 30
0.0
  0
CIRCLE
  5
21E
330
70
100
AcDbEntity
  8
0
 62
    18
420
        0
370
    25
100
AcDbCircle
 10
367.8976942499472
 20
31.92349591783379
 30
0.0
 40
1.32271733917758
  0
CIRCLE
  5
21F
330
70
100
AcDbEntity
  8
0
 62
    18
420
        0
370
    25
100
AcDbCircle
 10
363.5062726838774
 20
38.53708261372169
 30
0.0
 40
1.32271733917758
  0
CIRCLE
  5
220
330
70
100
AcDbEntity
  8
0
 62
    18
420
        0
370
    25
100
AcDbCircle
 10
363.5062726838774
 20
45.15066930960959
 30
0.0
 40
1.32271733917758
  0
CIRCLE
  5
221
330
70
100
AcDbEntity
  8
0
 62
    18
420
        0
370
    25
100
AcDbCircle
 10
367.8976942499472
 20
51.76425600549749
 30
0.0
 40
1.32271733917758
  0
LINE
  5
222
330
70
100
AcDbEntity
  8
0
 62
    18
420
        0
370
    25
100
AcDbLine
 10
370.2389039402912
 20
55.07104935344145
 30
0.0
 11
366.1517073622325
 21
55.07104935344145
 31
0.0
  0
LINE
  5
223
330
70
100
AcDbEntity
  8
0
 62
    18
420
        0
370
    25
100
AcDbLine
 10
366.1517073622325
 20
28.61670256988984
 30
0.0
 11
370.2389039402912
 21
28.61670256988984
 31
0.0
  0
CIRCLE
  5
224
330
70
100
AcDbEntity
  8
0
 62
    18
420
        0
370
    25
100
AcDbCircle
 10
367.897694249947
 20
31.92349591783363
 30
0.0
 40
0.7936304035064922
  0
CIRCLE
  5
225
330
70
100
AcDbEntity
  8
0
 62
    18
420
        0
370
    25
100
AcDbCircle
 10
363.5062726838774
 20
38.53708261372153
 30
0.0
 40
0.7936304035065323
  0
CIRCLE
  5
226
330
70
100
AcDbEntity
  8
0
 62
    18
420
        0
370
    25
100
AcDbCircle
 10
363.5062726838774
 20
45.15066930960943
 30
0.0
 40
0.7936304035065323
  0
CIRCLE
  5
227
330
70
100
AcDbEntity
  8
0
 62
    18
420
        0
370
    25
100
AcDbCircle
 10
367.897694249947
 20
51.76425600549734
 30
0.0
 40
0.7936304035064922
  0
LINE
  5
228
330
70
100
AcDbEntity
  8
0
 62
    18
420
        0
370
    25
100
AcDbLine
 10
372.7123853645533
 20
28.61670256988984
 30
0.0
 11
373.5060157680599
 21
28.61670256988984
 31
0.0
  0
LINE
  5
229
330
70
100
AcDbEntity
  8
0
 62
    18
420
        0
370
    25
100
AcDbLine
 10
373.5060157680599
 20
32.84939805525823
 30
0.0
 11
372.7123853645533
 21
32.84939805525823
 31
0.0
  0
LINE
  5
22A
330
70
100
AcDbEntity
  8
0
 62
    18
420
        0
370
    25
100
AcDbLine
 10
372.7123853645533
 20
32.84939805525823
 30
0.0
 11
372.7123853645533
 21
28.61670256988984
 31
0.0
  0
LINE
  5
22B
330
70
100
AcDbEntity
  8
0
 62
    18
420
        0
370
    25
100
AcDbLine
 10
373.5060157680599
 20
28.61670256988984
 30
0.0
 11
373.5060157680599
 21
32.84939805525823
 31
0.0
  0
LINE
  5
22C
330
70
100
AcDbEntity
  8
0
 62
    18
420
        0
370
    25
100
AcDbLine
 10
372.7123853645533
 20
50.83835386807306
 30
0.0
 11
373.5060157680599
 21
50.83835386807306
 31
0.0
  0
LINE
  5
22D
330
70
100
AcDbEntity
  8
0
 62
    18
420
        0
370
    25
100
AcDbLine
 10
372.7123853645533
 20
50.83835386807306
 30
0.0
 11
372.7123853645533
 21
32.84939805525823
 31
0.0
  0
LINE
  5
22E
330
70
100
AcDbEntity
  8
0
 62
    18
420
        0
370
    25
100
AcDbLine
 10
373.5060157680599
 20
50.83835386807306
 30
0.0
 11
373.5060157680599
 21
32.84939805525823
 31
0.0
  0
LINE
  5
22F
330
70
100
AcDbEntity
  8
0
 62
    18
420
        0
370
    25
100
AcDbLine
 10
373.5060157680599
 20
55.07104935344145
 30
0.0
 11
372.7123853645533
 21
55.07104935344145
 31
0.0
  0
LINE
  5
230
330
70
100
AcDbEntity
  8
0
 62
    18
420
        0
370
    25
100
AcDbLine
 10
372.7123853645533
 20
55.07104935344145
 30
0.0
 11
372.7123853645533
 21
50.83835386807306
 31
0.0
  0
LINE
  5
231
330
70
100
AcDbEntity
  8
0
 62
    18
420
        0
370
    25
100
AcDbLine
 10
373.5060157680599
 20
50.83835386807306
 30
0.0
 11
373.5060157680599
 21
55.07104935344145
 31
0.0
  0
LINE
  5
232
330
70
100
AcDbEntity
  8
0
 62
    18
420
        0
370
    25
100
AcDbLine
 10
373.5590828708891
 20
33.92608996934843
 30
0.0
 11
373.5590828708891
 21
39.18918226193635
 31
0.0
  0
LINE
  5
233
330
70
100
AcDbEntity
  8
0
 62
    18
420
        0
370
    25
100
AcDbLine
 10
372.5801136306358
 20
39.18918226193635
 30
0.0
 11
370.2389039402912
 21
39.18918226193635
 31
0.0
  0
LINE
  5
234
330
70
100
AcDbEntity
  8
0
 62
    18
420
        0
370
    25
100
AcDbLine
 10
372.5801136306358
 20
39.18918226193635
 30
0.0
 11
372.5801136306358
 21
33.92608996934843
 31
0.0
  0
LINE
  5
235
330
70
100
AcDbEntity
  8
0
 62
    18
420
        0
370
    25
100
AcDbLine
 10
370.2389039402912
 20
33.92608996934843
 30
0.0
 11
372.5801136306358
 21
33.92608996934843
 31
0.0
  0
LINE
  5
236
330
70
100
AcDbEntity
  8
0
 62
    18
420
        0
370
    25
100
AcDbLine
 10
373.5590828708891
 20
44.49856966139494
 30
0.0
 11
373.5590828708891
 21
49.76166195398285
 31
0.0
  0
LINE
  5
237
330
70
100
AcDbEntity
  8
0
 62
    18
420
        0
370
    25
100
AcDbLine
 10
372.5801136306358
 20
49.76166195398285
 30
0.0
 11
370.2389039402912
 21
49.76166195398285
 31
0.0
  0
LINE
  5
238
330
70
100
AcDbEntity
  8
0
 62
    18
420
        0
370
    25
100
AcDbLine
 10
372.5801136306358
 20
49.76166195398285
 30
0.0
 11
372.5801136306358
 21
44.49856966139494
 31
0.0
  0
LINE
  5
239
330
70
100
AcDbEntity
  8
0
 62
    18
420
        0
370
    25
100
AcDbLine
 10
370.2389039402912
 20
44.49856966139494
 30
0.0
 11
372.5801136306358
 21
44.49856966139494
 31
0.0
  0
LINE
  5
23A
330
70
100
AcDbEntity
  8
0
 62
    18
420
        0
370
    25
100
AcDbLine
 10
373.5590828708891
 20
39.18918226193635
 30
0.0
 11
373.5060157680599
 21
39.18918226193635
 31
0.0
  0
LINE
  5
23B
330
70
100
AcDbEntity
  8
0
 62
    18
420
        0
370
    25
100
AcDbLine
 10
373.5060157680599
 20
33.92608996934843
 30
0.0
 11
373.5590828708891
 21
33.92608996934843
 31
0.0
  0
LINE
  5
23C
330
70
100
AcDbEntity
  8
0
 62
    18
420
        0
370
    25
100
AcDbLine
 10
373.5590828708891
 20
49.76166195398285
 30
0.0
 11
373.5060157680599
 21
49.76166195398285
 31
0.0
  0
LINE
  5
23D
330
70
100
AcDbEntity
  8
0
 62
    18
420
        0
370
    25
100
AcDbLine
 10
373.5060157680599
 20
44.49856966139494
 30
0.0
 11
373.5590828708891
 21
44.49856966139494
 31
0.0
  0
LINE
  5
23E
330
70
100
AcDbEntity
  8
0
 62
    18
420
        0
370
    25
100
AcDbLine
 10
372.7123853645533
 20
70.81138568965491
 30
0.0
 11
373.5060157680599
 21
70.81138568965491
 31
0.0
  0
LINE
  5
23F
330
70
100
AcDbEntity
  8
0
 62
    18
420
        0
370
    25
100
AcDbLine
 10
373.5060157680599
 20
75.04408117502298
 30
0.0
 11
372.7123853645533
 21
75.04408117502298
 31
0.0
  0
LINE
  5
240
330
70
100
AcDbEntity
  8
0
 62
    18
420
        0
370
    25
100
AcDbLine
 10
372.7123853645533
 20
75.04408117502298
 30
0.0
 11
372.7123853645533
 21
70.81138568965491
 31
0.0
  0
LINE
  5
241
330
70
100
AcDbEntity
  8
0
 62
    18
420
        0
370
    25
100
AcDbLine
 10
373.5060157680599
 20
70.81138568965491
 30
0.0
 11
373.5060157680599
 21
75.04408117502298
 31
0.0
  0
LINE
  5
242
330
70
100
AcDbEntity
  8
0
 62
    18
420
        0
370
    25
100
AcDbLine
 10
372.7123853645533
 20
93.03303698783812
 30
0.0
 11
373.5060157680599
 21
93.03303698783812
 31
0.0
  0
LINE
  5
243
330
70
100
AcDbEntity
  8
0
 62
    18
420
        0
370
    25
100
AcDbLine
 10
372.7123853645533
 20
93.03303698783812
 30
0.0
 11
372.7123853645533
 21
75.04408117502298
 31
0.0
  0
LINE
  5
244
330
70
100
AcDbEntity
  8
0
 62
    18
420
        0
370
    25
100
AcDbLine
 10
373.5060157680599
 20
93.03303698783812
 30
0.0
 11
373.5060157680599
 21
75.04408117502298
 31
0.0
  0
LINE
  5
245
330
70
100
AcDbEntity
  8
0
 62
    18
420
        0
370
    25
100
AcDbLine
 10
373.5060157680599
 20
97.26573247320652
 30
0.0
 11
372.7123853645533
 21
97.26573247320652
 31
0.0
  0
LINE
  5
246
330
70
100
AcDbEntity
  8
0
 62
    18
420
        0
370
    25
100
AcDbLine
 10
372.7123853645533
 20
97.26573247320652
 30
0.0
 11
372.7123853645533
 21
93.03303698783812
 31
0.0
  0
LINE
  5
247
330
70
100
AcDbEntity
  8
0
 62
    18
420
        0
370
    25
100
AcDbLine
 10
373.5060157680599
 20
93.03303698783812
 30
0.0
 11
373.5060157680599
 21
97.26573247320652
 31
0.0
  0
LINE
  5
248
330
70
100
AcDbEntity
  8
0
 62
    18
420
        0
370
    25
100
AcDbLine
 10
373.5590828708891
 20
76.1207730891135
 30
0.0
 11
373.5590828708891
 21
81.38386538170109
 31
0.0
  0
LINE
  5
249
330
70
100
AcDbEntity
  8
0
 62
    18
420
        0
370
    25
100
AcDbLine
 10
372.5801136306358
 20
81.38386538170109
 30
0.0
 11
370.2389039402912
 21
81.38386538170109
 31
0.0
  0
LINE
  5
24A
330
70
100
AcDbEntity
  8
0
 62
    18
420
        0
370
    25
100
AcDbLine
 10
372.5801136306358
 20
81.38386538170109
 30
0.0
 11
372.5801136306358
 21
76.1207730891135
 31
0.0
  0
LINE
  5
24B
330
70
100
AcDbEntity
  8
0
 62
    18
420
        0
370
    25
100
AcDbLine
 10
370.2389039402912
 20
76.1207730891135
 30
0.0
 11
372.5801136306358
 21
76.1207730891135
 31
0.0
  0
LINE
  5
24C
330
70
100
AcDbEntity
  8
0
 62
    18
420
        0
370
    25
100
AcDbLine
 10
373.5590828708891
 20
86.69325278116001
 30
0.0
 11
373.5590828708891
 21
91.9563450737476
 31
0.0
  0
LINE
  5
24D
330
70
100
AcDbEntity
  8
0
 62
    18
420
        0
370
    25
100
AcDbLine
 10
372.5801136306358
 20
91.9563450737476
 30
0.0
 11
370.2389039402912
 21
91.9563450737476
 31
0.0
  0
LINE
  5
24E
330
70
100
AcDbEntity
  8
0
 62
    18
420
        0
370
    25
100
AcDbLine
 10
372.5801136306358
 20
91.9563450737476
 30
0.0
 11
372.5801136306358
 21
86.69325278116001
 31
0.0
  0
LINE
  5
24F
330
70
100
AcDbEntity
  8
0
 62
    18
420
        0
370
    25
100
AcDbLine
 10
370.2389039402912
 20
86.69325278116001
 30
0.0
 11
372.5801136306358
 21
86.69325278116001
 31
0.0
  0
LINE
  5
250
330
70
100
AcDbEntity
  8
0
 62
    18
420
        0
370
    25
100
AcDbLine
 10
373.5590828708891
 20
81.38386538170109
 30
0.0
 11
373.5060157680599
 21
81.38386538170109
 31
0.0
  0
LINE
  5
251
330
70
100
AcDbEntity
  8
0
 62
    18
420
        0
370
    25
100
AcDbLine
 10
373.5060157680599
 20
76.1207730891135
 30
0.0
 11
373.5590828708891
 21
76.1207730891135
 31
0.0
  0
LINE
  5
252
330
70
100
AcDbEntity
  8
0
 62
    18
420
        0
370
    25
100
AcDbLine
 10
373.5590828708891
 20
91.9563450737476
 30
0.0
 11
373.5060157680599
 21
91.9563450737476
 31
0.0
  0
LINE
  5
253
330
70
100
AcDbEntity
  8
0
 62
    18
420
        0
370
    25
100
AcDbLine
 10
373.5060157680599
 20
86.69325278116001
 30
0.0
 11
373.5590828708891
 21
86.69325278116001
 31
0.0
  0
LINE
  5
254
330
70
100
AcDbEntity
  8
0
 62
    18
420
        0
370
    25
100
AcDbLine
 10
372.7123853645533
 20
113.00606880942
 30
0.0
 11
373.5060157680599
 21
113.00606880942
 31
0.0
  0
LINE
  5
255
330
70
100
AcDbEntity
  8
0
 62
    18
420
        0
370
    25
100
AcDbLine
 10
373.5060157680599
 20
117.238764294788
 30
0.0
 11
372.7123853645533
 21
117.238764294788
 31
0.0
  0
LINE
  5
256
330
70
100
AcDbEntity
  8
0
 62
    18
420
        0
370
    25
100
AcDbLine
 10
372.7123853645533
 20
117.238764294788
 30
0.0
 11
372.7123853645533
 21
113.00606880942
 31
0.0
  0
LINE
  5
257
330
70
100
AcDbEntity
  8
0
 62
    18
420
        0
370
    25
100
AcDbLine
 10
373.5060157680599
 20
113.00606880942
 30
0.0
 11
373.5060157680599
 21
117.238764294788
 31
0.0
  0
LINE
  5
258
330
70
100
AcDbEntity
  8
0
 62
    18
420
        0
370
    25
100
AcDbLine
 10
372.7123853645533
 20
135.2277201076032
 30
0.0
 11
373.5060157680599
 21
135.2277201076032
 31
0.0
  0
LINE
  5
259
330
70
100
AcDbEntity
  8
0
 62
    18
420
        0
370
    25
100
AcDbLine
 10
372.7123853645533
 20
135.2277201076032
 30
0.0
 11
372.7123853645533
 21
117.238764294788
 31
0.0
  0
LINE
  5
25A
330
70
100
AcDbEntity
  8
0
 62
    18
420
        0
370
    25
100
AcDbLine
 10
373.5060157680599
 20
135.2277201076032
 30
0.0
 11
373.5060157680599
 21
117.238764294788
 31
0.0
  0
LINE
  5
25B
330
70
100
AcDbEntity
  8
0
 62
    18
420
        0
370
    25
100
AcDbLine
 10
373.5060157680599
 20
139.4604155929716
 30
0.0
 11
372.7123853645533
 21
139.4604155929716
 31
0.0
  0
LINE
  5
25C
330
70
100
AcDbEntity
  8
0
 62
    18
420
        0
370
    25
100
AcDbLine
 10
372.7123853645533
 20
139.4604155929716
 30
0.0
 11
372.7123853645533
 21
135.2277201076032
 31
0.0
  0
LINE
  5
25D
330
70
100
AcDbEntity
  8
0
 62
    18
420
        0
370
    25
100
AcDbLine
 10
373.5060157680599
 20
135.2277201076032
 30
0.0
 11
373.5060157680599
 21
139.4604155929716
 31
0.0
  0
LINE
  5
25E
330
70
100
AcDbEntity
  8
0
 62
    18
420
        0
370
    25
100
AcDbLine
 10
373.5590828708891
 20
118.3154562088786
 30
0.0
 11
373.5590828708891
 21
123.5785485014661
 31
0.0
  0
LINE
  5
25F
330
70
100
AcDbEntity
  8
0
 62
    18
420
        0
370
    25
100
AcDbLine
 10
372.5801136306358
 20
123.5785485014661
 30
0.0
 11
370.2389039402912
 21
123.5785485014661
 31
0.0
  0
LINE
  5
260
330
70
100
AcDbEntity
  8
0
 62
    18
420
        0
370
    25
100
AcDbLine
 10
372.5801136306358
 20
123.5785485014661
 30
0.0
 11
372.5801136306358
 21
118.3154562088786
 31
0.0
  0
LINE
  5
261
330
70
100
AcDbEntity
  8
0
 62
    18
420
        0
370
    25
100
AcDbLine
 10
370.2389039402912
 20
118.3154562088786
 30
0.0
 11
372.5801136306358
 21
118.3154562088786
 31
0.0
  0
LINE
  5
262
330
70
100
AcDbEntity
  8
0
 62
    18
420
        0
370
    25
100
AcDbLine
 10
373.5590828708891
 20
128.887935900925
 30
0.0
 11
373.5590828708891
 21
134.1510281935127
 31
0.0
  0
LINE
  5
263
330
70
100
AcDbEntity
  8
0
 62
    18
420
        0
370
    25
100
AcDbLine
 10
372.5801136306358
 20
134.1510281935127
 30
0.0
 11
370.2389039402912
 21
134.1510281935127
 31
0.0
  0
LINE
  5
264
330
70
100
AcDbEntity
  8
0
 62
    18
420
        0
370
    25
100
AcDbLine
 10
372.5801136306358
 20
134.1510281935127
 30
0.0
 11
372.5801136306358
 21
128.887935900925
 31
0.0
  0
LINE
  5
265
330
70
100
AcDbEntity
  8
0
 62
    18
420
        0
370
    25
100
AcDbLine
 10
370.2389039402912
 20
128.887935900925
 30
0.0
 11
372.5801136306358
 21
128.887935900925
 31
0.0
  0
LINE
  5
266
330
70
100
AcDbEntity
  8
0
 62
    18
420
        0
370
    25
100
AcDbLine
 10
373.5590828708891
 20
123.5785485014661
 30
0.0
 11
373.5060157680599
 21
123.5785485014661
 31
0.0
  0
LINE
  5
267
330
70
100
AcDbEntity
  8
0
 62
    18
420
        0
370
    25
100
AcDbLine
 10
373.5060157680599
 20
118.3154562088786
 30
0.0
 11
373.5590828708891
 21
118.3154562088786
 31
0.0
  0
LINE
  5
268
330
70
100
AcDbEntity
  8
0
 62
    18
420
        0
370
    25
100
AcDbLine
 10
373.5590828708891
 20
134.1510281935127
 30
0.0
 11
373.5060157680599
 21
134.1510281935127
 31
0.0
  0
LINE
  5
269
330
70
100
AcDbEntity
  8
0
 62
    18
420
        0
370
    25
100
AcDbLine
 10
373.5060157680599
 20
128.887935900925
 30
0.0
 11
373.5590828708891
 21
128.887935900925
 31
0.0
  0
LINE
  5
26A
330
70
100
AcDbEntity
  8
0
 62
    18
420
        0
370
    25
100
AcDbLine
 10
372.1842714830334
 20
27.84952651316679
 30
0.0
 11
370.2256767668995
 21
27.84952651316679
 31
0.0
  0
LINE
  5
26B
330
70
100
AcDbEntity
  8
0
 62
    18
420
        0
370
    25
100
AcDbLine
 10
374.4054635587008
 20
27.84952651316679
 30
0.0
 11
372.1842714830334
 21
27.84952651316679
 31
0.0
  0
LINE
  5
26C
330
70
100
AcDbEntity
  8
0
 62
    18
420
        0
370
    25
100
AcDbLine
 10
372.1859334916379
 20
27.82307216638291
 30
0.0
 11
374.3790092119172
 21
27.82307216638291
 31
0.0
  0
LINE
  5
26D
330
70
100
AcDbEntity
  8
0
 62
    18
420
        0
370
    25
100
AcDbLine
 10
370.2521311136831
 20
27.82307216638291
 30
0.0
 11
372.1859334916379
 21
27.82307216638291
 31
0.0
  0
LINE
  5
26E
330
70
100
AcDbEntity
  8
0
 62
    18
420
        0
370
    25
100
AcDbLine
 10
372.1842714830334
 20
28.59024822310595
 30
0.0
 11
374.4054635587008
 21
28.59024822310595
 31
0.0
  0
LINE
  5
26F
330
70
100
AcDbEntity
  8
0
 62
    18
420
        0
370
    25
100
AcDbLine
 10
370.2256767668995
 20
28.59024822310595
 30
0.0
 11
372.1842714830334
 21
28.59024822310595
 31
0.0
  0
LINE
  5
270
330
70
100
AcDbEntity
  8
0
 62
    18
420
        0
370
    25
100
AcDbLine
 10
370.2256767668995
 20
55.83822541016449
 30
0.0
 11
374.4054635587008
 21
55.83822541016449
 31
0.0
  0
LINE
  5
271
330
70
100
AcDbEntity
  8
0
 62
    18
420
        0
370
    25
100
AcDbLine
 10
374.4054635587008
 20
55.09750370022469
 30
0.0
 11
370.2256767668995
 21
55.09750370022469
 31
0.0
  0
LINE
  5
272
330
70
100
AcDbEntity
  8
0
 62
    18
420
        0
370
    25
100
AcDbLine
 10
374.3790092119172
 20
55.86467975694773
 30
0.0
 11
370.2521311136831
 21
55.86467975694773
 31
0.0
  0
LINE
  5
273
330
70
100
AcDbEntity
  8
0
 62
    18
420
        0
370
    25
100
AcDbLine
 10
372.1842714830334
 20
70.04420963293187
 30
0.0
 11
370.2256767668995
 21
70.04420963293187
 31
0.0
  0
LINE
  5
274
330
70
100
AcDbEntity
  8
0
 62
    18
420
        0
370
    25
100
AcDbLine
 10
374.4054635587008
 20
70.04420963293187
 30
0.0
 11
372.1842714830334
 21
70.04420963293187
 31
0.0
  0
LINE
  5
275
330
70
100
AcDbEntity
  8
0
 62
    18
420
        0
370
    25
100
AcDbLine
 10
372.1842714830334
 20
70.78493134287102
 30
0.0
 11
374.4054635587008
 21
70.78493134287102
 31
0.0
  0
LINE
  5
276
330
70
100
AcDbEntity
  8
0
 62
    18
420
        0
370
    25
100
AcDbLine
 10
370.2256767668995
 20
70.78493134287102
 30
0.0
 11
372.1842714830334
 21
70.78493134287102
 31
0.0
  0
LINE
  5
277
330
70
100
AcDbEntity
  8
0
 62
    18
420
        0
370
    25
100
AcDbLine
 10
372.1859334916379
 20
70.01775528614797
 30
0.0
 11
374.3790092119172
 21
70.01775528614797
 31
0.0
  0
LINE
  5
278
330
70
100
AcDbEntity
  8
0
 62
    18
420
        0
370
    25
100
AcDbLine
 10
370.2521311136831
 20
70.01775528614797
 30
0.0
 11
372.1859334916379
 21
70.01775528614797
 31
0.0
  0
LINE
  5
279
330
70
100
AcDbEntity
  8
0
 62
    18
420
        0
370
    25
100
AcDbLine
 10
370.2256767668995
 20
140.2275916496946
 30
0.0
 11
374.4054635587008
 21
140.2275916496946
 31
0.0
  0
LINE
  5
27A
330
70
100
AcDbEntity
  8
0
 62
    18
420
        0
370
    25
100
AcDbLine
 10
374.4054635587008
 20
139.4868699397551
 30
0.0
 11
370.2256767668995
 21
139.4868699397551
 31
0.0
  0
LINE
  5
27B
330
70
100
AcDbEntity
  8
0
 62
    18
420
        0
370
    25
100
AcDbLine
 10
374.3790092119172
 20
140.2540459964782
 30
0.0
 11
370.2521311136831
 21
140.2540459964782
 31
0.0
  0
LINE
  5
27C
330
70
100
AcDbEntity
  8
0
 62
    18
420
        0
370
    25
100
AcDbLine
 10
374.4054635587008
 20
97.29218681999007
 30
0.0
 11
370.2256767668995
 21
97.29218681999007
 31
0.0
  0
LINE
  5
27D
330
70
100
AcDbEntity
  8
0
 62
    18
420
        0
370
    25
100
AcDbLine
 10
370.2256767668995
 20
98.03290852992958
 30
0.0
 11
374.4054635587008
 21
98.03290852992958
 31
0.0
  0
LINE
  5
27E
330
70
100
AcDbEntity
  8
0
 62
    18
420
        0
370
    25
100
AcDbLine
 10
374.3790092119172
 20
98.05936287671315
 30
0.0
 11
370.2521311136831
 21
98.05936287671315
 31
0.0
  0
LINE
  5
27F
330
70
100
AcDbEntity
  8
0
 62
    18
420
        0
370
    25
100
AcDbLine
 10
372.1842714830334
 20
112.2388927526969
 30
0.0
 11
370.2256767668995
 21
112.2388927526969
 31
0.0
  0
LINE
  5
280
330
70
100
AcDbEntity
  8
0
 62
    18
420
        0
370
    25
100
AcDbLine
 10
374.4054635587008
 20
112.2388927526969
 30
0.0
 11
372.1842714830334
 21
112.2388927526969
 31
0.0
  0
LINE
  5
281
330
70
100
AcDbEntity
  8
0
 62
    18
420
        0
370
    25
100
AcDbLine
 10
372.1859334916382
 20
112.2124384059133
 30
0.0
 11
374.3790092119172
 21
112.2124384059133
 31
0.0
  0
LINE
  5
282
330
70
100
AcDbEntity
  8
0
 62
    18
420
        0
370
    25
100
AcDbLine
 10
370.2521311136831
 20
112.2124384059133
 30
0.0
 11
372.1859334916382
 21
112.2124384059133
 31
0.0
  0
LINE
  5
283
330
70
100
AcDbEntity
  8
0
 62
    18
420
        0
370
    25
100
AcDbLine
 10
372.1842714830334
 20
112.9796144626361
 30
0.0
 11
374.4054635587008
 21
112.9796144626361
 31
0.0
  0
LINE
  5
284
330
70
100
AcDbEntity
  8
0
 62
    18
420
        0
370
    25
100
AcDbLine
 10
370.2256767668995
 20
112.9796144626361
 30
0.0
 11
372.1842714830334
 21
112.9796144626361
 31
0.0
  0
INSERT
  5
286
330
70
100
AcDbEntity
  8
0
100
AcDbBlockReference
  2
Block_2
 10
0.0
 20
0.0
 30
0.0
  0
INSERT
  5
28E
330
70
100
AcDbEntity
  8
0
100
AcDbBlockReference
  2
Block_3
 10
0.0
 20
0.0
 30
0.0
  0
LINE
  5
295
330
70
100
AcDbEntity
  8
0
 62
    18
420
        0
370
    25
100
AcDbLine
 10
406.0853166875352
 20
96.47835183312073
 30
0.0
 11
406.0853166875352
 21
96.6415690760277
 31
0.0
  0
LINE
  5
296
330
70
100
AcDbEntity
  8
0
 62
    18
420
        0
370
    25
100
AcDbLine
 10
401.9319842425172
 20
96.6415690760277
 30
0.0
 11
401.9319842425172
 21
96.57591119448918
 31
0.0
  0
LINE
  5
297
330
70
100
AcDbEntity
  8
0
 62
    18
420
        0
370
    25
100
AcDbLine
 10
397.7478130579754
 20
70.20443687595292
 30
0.0
 11
398.3089944980512
 21
70.05919243150318
 31
0.0
  0
LINE
  5
298
330
70
100
AcDbEntity
  8
0
 62
    18
420
        0
370
    25
100
AcDbLine
 10
406.0853166875352
 20
137.235285990585
 30
0.0
 11
406.0853166875352
 21
137.398503233492
 31
0.0
  0
LINE
  5
299
330
70
100
AcDbEntity
  8
0
 62
    18
420
        0
370
    25
100
AcDbLine
 10
401.9319842425179
 20
137.3985032334923
 30
0.0
 11
401.9319842425179
 21
137.3328453519538
 31
0.0
  0
LINE
  5
29A
330
70
100
AcDbEntity
  8
0
 62
    18
420
        0
370
    25
100
AcDbLine
 10
397.747813057976
 20
110.9613710334172
 30
0.0
 11
398.3089944980512
 21
110.8161265889675
 31
0.0
  0
LINE
  5
29B
330
70
100
AcDbEntity
  8
0
 62
    18
420
        0
370
    25
100
AcDbLine
 10
406.0853166875352
 20
55.72141767565607
 30
0.0
 11
406.0853166875352
 21
55.88463491856303
 31
0.0
  0
LINE
  5
29C
330
70
100
AcDbEntity
  8
0
 62
    18
420
        0
370
    25
100
AcDbLine
 10
401.9319842425172
 20
55.88463491856303
 30
0.0
 11
401.9319842425172
 21
55.81897703702483
 31
0.0
  0
LINE
  5
29D
330
70
100
AcDbEntity
  8
0
 62
    18
420
        0
370
    25
100
AcDbLine
 10
397.7478130579754
 20
29.44750271848827
 30
0.0
 11
398.3089944980505
 21
29.30225827403852
 31
0.0
  0
LINE
  5
29E
330
70
100
AcDbEntity
  8
0
 62
    18
420
        0
370
    25
100
AcDbLine
 10
409.7083064320014
 20
29.30225827403852
 30
0.0
 11
410.2694878720772
 21
29.44750271848827
 31
0.0
  0
LINE
  5
29F
330
70
100
AcDbEntity
  8
0
 62
    18
420
        0
370
    25
100
AcDbLine
 10
409.7083064320014
 20
70.05919243150318
 30
0.0
 11
410.2694878720772
 21
70.20443687595292
 31
0.0
  0
LINE
  5
2A0
330
70
100
AcDbEntity
  8
0
 62
    18
420
        0
370
    25
100
AcDbLine
 10
409.708306432002
 20
110.8161265889678
 30
0.0
 11
410.2694878720772
 21
110.9613710334172
 31
0.0
  0
LINE
  5
2A1
330
70
100
AcDbEntity
  8
0
 62
    18
420
        0
370
    25
100
AcDbLine
 10
406.0985438609269
 20
29.62587014982147
 30
0.0
 11
406.0985438609269
 21
29.97124554767758
 31
0.0
  0
LINE
  5
2A2
330
70
100
AcDbEntity
  8
0
 62
    18
420
        0
370
    25
100
AcDbLine
 10
401.9187570691256
 20
29.97124554767758
 30
0.0
 11
401.9187570691256
 21
29.62587014982147
 31
0.0
  0
LINE
  5
2A3
330
70
100
AcDbEntity
  8
0
 62
    18
420
        0
370
    25
100
AcDbLine
 10
401.9951781089734
 20
29.48093530274049
 30
0.0
 11
402.0206651008224
 21
29.45721698428267
 31
0.0
  0
LINE
  5
2A4
330
70
100
AcDbEntity
  8
0
 62
    18
420
        0
370
    25
100
AcDbLine
 10
405.9966358292302
 20
29.45721698428267
 30
0.0
 11
406.0221228210791
 21
29.48093530274049
 31
0.0
  0
LINE
  5
2A5
330
70
100
AcDbEntity
  8
0
 62
    18
420
        0
370
    25
100
AcDbLine
 10
406.0221228210791
 20
56.80581210574108
 30
0.0
 11
405.9966358292302
 21
56.82953042419955
 31
0.0
  0
LINE
  5
2A6
330
70
100
AcDbEntity
  8
0
 62
    18
420
        0
370
    25
100
AcDbLine
 10
402.0206651008224
 20
56.82953042419955
 30
0.0
 11
401.9951781089734
 21
56.80581210574108
 31
0.0
  0
LINE
  5
2A7
330
70
100
AcDbEntity
  8
0
 62
    18
420
        0
370
    25
100
AcDbLine
 10
401.9187570691256
 20
56.6608772586601
 30
0.0
 11
401.9187570691256
 21
55.94539502893647
 31
0.0
  0
LINE
  5
2A8
330
70
100
AcDbEntity
  8
0
 62
    18
420
        0
370
    25
100
AcDbLine
 10
406.0985438609269
 20
55.94539502893647
 30
0.0
 11
406.0985438609269
 21
56.6608772586601
 31
0.0
  0
LINE
  5
2A9
330
70
100
AcDbEntity
  8
0
 62
    18
420
        0
370
    25
100
AcDbLine
 10
401.9951781089734
 20
55.80046018185614
 30
0.0
 11
402.0206651008224
 21
55.77674186339767
 31
0.0
  0
LINE
  5
2AA
330
70
100
AcDbEntity
  8
0
 62
    18
420
        0
370
    25
100
AcDbLine
 10
405.9966358292302
 20
55.77674186339767
 30
0.0
 11
406.0221228210791
 21
55.80046018185614
 31
0.0
  0
LINE
  5
2AB
330
70
100
AcDbEntity
  8
0
 62
    18
420
        0
370
    25
100
AcDbLine
 10
406.0985438609269
 20
70.38280430728613
 30
0.0
 11
406.0985438609269
 21
70.72817970514224
 31
0.0
  0
LINE
  5
2AC
330
70
100
AcDbEntity
  8
0
 62
    18
420
        0
370
    25
100
AcDbLine
 10
401.9187570691256
 20
70.72817970514224
 30
0.0
 11
401.9187570691256
 21
70.38280430728613
 31
0.0
  0
LINE
  5
2AD
330
70
100
AcDbEntity
  8
0
 62
    18
420
        0
370
    25
100
AcDbLine
 10
401.9951781089734
 20
70.23786946020514
 30
0.0
 11
402.0206651008224
 21
70.21415114174669
 31
0.0
  0
LINE
  5
2AE
330
70
100
AcDbEntity
  8
0
 62
    18
420
        0
370
    25
100
AcDbLine
 10
405.9966358292302
 20
70.21415114174669
 30
0.0
 11
406.0221228210791
 21
70.23786946020514
 31
0.0
  0
LINE
  5
2AF
330
70
100
AcDbEntity
  8
0
 62
    18
420
        0
370
    25
100
AcDbLine
 10
406.0221228210791
 20
138.3196804206701
 30
0.0
 11
405.9966358292308
 21
138.3433987391285
 31
0.0
  0
LINE
  5
2B0
330
70
100
AcDbEntity
  8
0
 62
    18
420
        0
370
    25
100
AcDbLine
 10
402.020665100823
 20
138.3433987391285
 30
0.0
 11
401.9951781089741
 21
138.3196804206701
 31
0.0
  0
LINE
  5
2B1
330
70
100
AcDbEntity
  8
0
 62
    18
420
        0
370
    25
100
AcDbLine
 10
401.9187570691263
 20
138.1747455735891
 30
0.0
 11
401.9187570691263
 21
137.4592633438658
 31
0.0
  0
LINE
  5
2B2
330
70
100
AcDbEntity
  8
0
 62
    18
420
        0
370
    25
100
AcDbLine
 10
406.0985438609275
 20
137.4592633438658
 30
0.0
 11
406.0985438609275
 21
138.1747455735891
 31
0.0
  0
LINE
  5
2B3
330
70
100
AcDbEntity
  8
0
 62
    18
420
        0
370
    25
100
AcDbLine
 10
401.9951781089741
 20
137.3143284967848
 30
0.0
 11
402.0206651008224
 21
137.2906101783267
 31
0.0
  0
LINE
  5
2B4
330
70
100
AcDbEntity
  8
0
 62
    18
420
        0
370
    25
100
AcDbLine
 10
405.9966358292308
 20
137.2906101783267
 30
0.0
 11
406.0221228210791
 21
137.3143284967848
 31
0.0
  0
LINE
  5
2B5
330
70
100
AcDbEntity
  8
0
 62
    18
420
        0
370
    25
100
AcDbLine
 10
406.0221228210791
 20
97.56274626320575
 30
0.0
 11
405.9966358292302
 21
97.58646458166388
 31
0.0
  0
LINE
  5
2B6
330
70
100
AcDbEntity
  8
0
 62
    18
420
        0
370
    25
100
AcDbLine
 10
402.0206651008224
 20
97.58646458166388
 30
0.0
 11
401.9951781089734
 21
97.56274626320575
 31
0.0
  0
LINE
  5
2B7
330
70
100
AcDbEntity
  8
0
 62
    18
420
        0
370
    25
100
AcDbLine
 10
401.9187570691256
 20
97.41781141612477
 30
0.0
 11
401.9187570691256
 21
96.70232918640115
 31
0.0
  0
LINE
  5
2B8
330
70
100
AcDbEntity
  8
0
 62
    18
420
        0
370
    25
100
AcDbLine
 10
406.0985438609269
 20
96.70232918640115
 30
0.0
 11
406.0985438609269
 21
97.41781141612477
 31
0.0
  0
LINE
  5
2B9
330
70
100
AcDbEntity
  8
0
 62
    18
420
        0
370
    25
100
AcDbLine
 10
401.9951781089734
 20
96.55739433932048
 30
0.0
 11
402.0206651008224
 21
96.53367602086202
 31
0.0
  0
LINE
  5
2BA
330
70
100
AcDbEntity
  8
0
 62
    18
420
        0
370
    25
100
AcDbLine
 10
405.9966358292308
 20
96.53367602086202
 30
0.0
 11
406.0221228210791
 21
96.55739433932048
 31
0.0
  0
LINE
  5
2BB
330
70
100
AcDbEntity
  8
0
 62
    18
420
        0
370
    25
100
AcDbLine
 10
406.0985438609269
 20
111.1397384647508
 30
0.0
 11
406.0985438609269
 21
111.4851138626065
 31
0.0
  0
LINE
  5
2BC
330
70
100
AcDbEntity
  8
0
 62
    18
420
        0
370
    25
100
AcDbLine
 10
401.9187570691263
 20
111.4851138626065
 30
0.0
 11
401.9187570691263
 21
111.1397384647508
 31
0.0
  0
LINE
  5
2BD
330
70
100
AcDbEntity
  8
0
 62
    18
420
        0
370
    25
100
AcDbLine
 10
401.9951781089741
 20
110.9948036176698
 30
0.0
 11
402.020665100823
 21
110.9710852992113
 31
0.0
  0
LINE
  5
2BE
330
70
100
AcDbEntity
  8
0
 62
    18
420
        0
370
    25
100
AcDbLine
 10
405.9966358292308
 20
110.9710852992113
 30
0.0
 11
406.0221228210791
 21
110.9948036176698
 31
0.0
  0
LINE
  5
2BF
330
70
100
AcDbEntity
  8
0
 62
    18
420
        0
370
    25
100
AcDbLine
 10
396.3765828800021
 20
73.38222935785598
 30
0.0
 11
396.3765828800021
 21
90.75822636542689
 31
0.0
  0
LWPOLYLINE
  5
2C0
330
70
100
AcDbEntity
  8
0
 62
    18
420
        0
370
    25
100
AcDbPolyline
 90
       12
 70
     0
 43
0.0
 10
396.3765828800021
 20
90.75822636542689
 10
396.4070469754858
 20
91.34796098387546
 10
396.4978191008031
 20
91.94145968235266
 10
396.6470513972486
 20
92.52664053886638
 10
396.8517059256167
 20
93.09159095869972
 10
397.1076165098845
 20
93.62481018048804
 10
397.4095735485418
 20
94.11544339855252
 10
397.7514300670532
 20
94.55350273544304
 10
398.1262268525359
 20
94.93007056631913
 10
398.5263341232608
 20
95.2374810560763
 10
398.9436068490105
 20
95.46947621364138
 10
399.3695505604039
 20
95.62133328662534
  0
LINE
  5
2C1
330
70
100
AcDbEntity
  8
0
 62
    18
420
        0
370
    25
100
AcDbLine
 10
402.2962220438024
 20
96.37881160528728
 30
0.0
 11
399.3695505604039
 21
95.62133328662534
 31
0.0
  0
LINE
  5
2C2
330
70
100
AcDbEntity
  8
0
 62
    18
420
        0
370
    25
100
AcDbLine
 10
399.3695505604039
 20
70.06839651078523
 30
0.0
 11
402.3651286306676
 21
70.84370916646141
 31
0.0
  0
LWPOLYLINE
  5
2C3
330
70
100
AcDbEntity
  8
0
 62
    18
420
        0
370
    25
100
AcDbPolyline
 90
       12
 70
     0
 43
0.0
 10
399.3695505604039
 20
70.06839651078523
 10
398.9436068490105
 20
69.99976889446898
 10
398.5263341232608
 20
70.01576779518251
 10
398.1262268525359
 20
70.11606752144415
 10
397.7514300670532
 20
70.298626260068
 10
397.4095735485418
 20
70.55972764159226
 10
397.1076165098845
 20
70.89405639484208
 10
396.8517059256167
 20
71.2948065505266
 10
396.6470513972486
 20
71.75381999114446
 10
396.4978191008031
 20
72.26175252672899
 10
396.4070469754858
 20
72.80826411561259
 10
396.3765828800021
 20
73.38222935785598
  0
LWPOLYLINE
  5
2C4
330
70
100
AcDbEntity
  8
0
 62
    18
420
        0
370
    25
100
AcDbPolyline
 90
       25
 70
     0
 43
0.0
 10
400.6041497285695
 20
72.30440454676235
 10
400.3620756544872
 20
72.2852859263909
 10
400.1364985285068
 20
72.35453972905474
 10
399.9427910589808
 20
72.50744642254961
 10
399.7941540898405
 20
72.73358566840532
 10
399.7007169848985
 20
73.01754645072843
 10
399.6688473284442
 20
73.33997731147191
 10
399.7007169848985
 20
73.67890512031786
 10
399.7941540898405
 20
74.01123250719715
 10
399.9427910589808
 20
74.31431190989235
 10
400.1364985285068
 20
74.567488967972
 10
400.3620756544872
 20
74.75351008332244
 10
400.6041497285695
 20
74.85969822434666
 10
400.8462238026518
 20
74.87881684471843
 10
401.0718009286322
 20
74.80956304205459
 10
401.2655083981583
 20
74.65665634855941
 10
401.4141453672986
 20
74.43051710270367
 10
401.5075824722406
 20
74.14655632038058
 10
401.5394521286949
 20
73.82412545963709
 10
401.5075824722406
 20
73.48519765079179
 10
401.4141453672986
 20
73.15287026391185
 10
401.2655083981583
 20
72.84979086121665
 10
401.0718009286322
 20
72.596613803137
 10
400.8462238026518
 20
72.41059268778656
 10
400.6041497285695
 20
72.30440454676235
  0
LWPOLYLINE
  5
2C5
330
70
100
AcDbEntity
  8
0
 62
    18
420
        0
370
    25
100
AcDbPolyline
 90
       25
 70
     0
 43
0.0
 10
397.4989457601531
 20
77.88895281476823
 10
397.2568716860702
 20
77.86983419439646
 10
397.0312945600903
 20
77.93908799706031
 10
396.8375870905642
 20
78.09199469055581
 10
396.6889501214233
 20
78.31813393641121
 10
396.5955130164813
 20
78.60209471873464
 10
396.5636433600276
 20
78.9245255794778
 10
396.5955130164813
 20
79.26345338832343
 10
396.6889501214233
 20
79.59578077520337
 10
396.8375870905642
 20
79.89886017789856
 10
397.0312945600903
 20
80.15203723597789
 10
397.2568716860702
 20
80.33805835132801
 10
397.4989457601531
 20
80.44424649235223
 10
397.7410198342353
 20
80.46336511272432
 10
397.9665969602157
 20
80.39411131006046
 10
398.1603044297418
 20
80.24120461656497
 10
398.3089413988821
 20
80.01506537070957
 10
398.4023785038241
 20
79.73110458838615
 10
398.4342481602785
 20
79.40867372764298
 10
398.4023785038241
 20
79.06974591879735
 10
398.3089413988821
 20
78.73741853191742
 10
398.1603044297418
 20
78.43433912922221
 10
397.9665969602157
 20
78.1811620711429
 10
397.7410198342353
 20
77.99514095579278
 10
397.4989457601531
 20
77.88895281476823
  0
LWPOLYLINE
  5
2C6
330
70
100
AcDbEntity
  8
0
 62
    18
420
        0
370
    25
100
AcDbPolyline
 90
       25
 70
     0
 43
0.0
 10
397.4989457601531
 20
84.27718700872835
 10
397.2568716860702
 20
84.25806838835624
 10
397.0312945600903
 20
84.32732219102009
 10
396.8375870905642
 20
84.48022888451559
 10
396.6889501214233
 20
84.70636813037131
 10
396.5955130164813
 20
84.99032891269441
 10
396.5636433600276
 20
85.31275977343758
 10
396.5955130164813
 20
85.65168758228322
 10
396.6889501214239
 20
85.98401496916315
 10
396.8375870905642
 20
86.28709437185834
 10
397.0312945600903
 20
86.54027142993767
 10
397.2568716860702
 20
86.72629254528779
 10
397.4989457601531
 20
86.83248068631232
 10
397.7410198342353
 20
86.8515993066841
 10
397.9665969602157
 20
86.78234550402025
 10
398.1603044297418
 20
86.62943881052475
 10
398.3089413988821
 20
86.40329956466935
 10
398.4023785038241
 20
86.11933878234593
 10
398.4342481602785
 20
85.79690792160276
 10
398.4023785038241
 20
85.45798011275712
 10
398.3089413988821
 20
85.12565272587751
 10
398.1603044297418
 20
84.822573323182
 10
397.9665969602157
 20
84.56939626510267
 10
397.7410198342353
 20
84.38337514975255
 10
397.4989457601531
 20
84.27718700872835
  0
LWPOLYLINE
  5
2C7
330
70
100
AcDbEntity
  8
0
 62
    18
420
        0
370
    25
100
AcDbPolyline
 90
       25
 70
     0
 43
0.0
 10
400.6041497285695
 20
91.46910712864235
 10
400.3620756544872
 20
91.44998850827057
 10
400.1364985285068
 20
91.51924231093442
 10
399.9427910589808
 20
91.6721490044296
 10
399.7941540898405
 20
91.89828825028532
 10
399.7007169848985
 20
92.18224903260875
 10
399.6688473284442
 20
92.50467989335191
 10
399.7007169848985
 20
92.84360770219754
 10
399.7941540898405
 20
93.17593508907716
 10
399.9427910589808
 20
93.47901449177268
 10
400.1364985285068
 20
93.732191549852
 10
400.3620756544872
 20
93.91821266520212
 10
400.6041497285695
 20
94.02440080622632
 10
400.8462238026524
 20
94.04351942659811
 10
401.0718009286322
 20
93.97426562393425
 10
401.2655083981583
 20
93.82135893043907
 10
401.4141453672986
 20
93.59521968458336
 10
401.5075824722406
 20
93.31125890226024
 10
401.5394521286949
 20
92.98882804151709
 10
401.5075824722412
 20
92.64990023267147
 10
401.4141453672986
 20
92.31757284579153
 10
401.2655083981583
 20
92.01449344309633
 10
401.0718009286322
 20
91.76131638501701
 10
400.8462238026524
 20
91.57529526966657
 10
400.6041497285695
 20
91.46910712864235
  0
LINE
  5
2C8
330
70
100
AcDbEntity
  8
0
 62
    18
420
        0
370
    25
100
AcDbLine
 10
399.3695505604039
 20
95.62133328662534
 30
0.0
 11
398.8083691203287
 21
95.76657773107475
 31
0.0
  0
LINE
  5
2C9
330
70
100
AcDbEntity
  8
0
 62
    18
420
        0
370
    25
100
AcDbLine
 10
395.815401439927
 20
90.90347080987632
 30
0.0
 11
396.3765828800021
 21
90.75822636542689
 31
0.0
  0
LWPOLYLINE
  5
2CA
330
70
100
AcDbEntity
  8
0
 62
    18
420
        0
370
    25
100
AcDbPolyline
 90
       12
 70
     0
 43
0.0
 10
398.8083691203287
 20
95.76657773107475
 10
398.3824254089353
 20
95.61472065809079
 10
397.965152683185
 20
95.38272550052573
 10
397.5650454124601
 20
95.07531501076888
 10
397.190248626978
 20
94.69874717989279
 10
396.848392108466
 20
94.26068784300227
 10
396.5464350698094
 20
93.77005462493746
 10
396.290524485541
 20
93.23683540314947
 10
396.0858699571734
 20
92.67188498331579
 10
395.936637660728
 20
92.08670412680209
 10
395.8458655354107
 20
91.49320542832489
 10
395.815401439927
 20
90.90347080987632
  0
LINE
  5
2CB
330
70
100
AcDbEntity
  8
0
 62
    18
420
        0
370
    25
100
AcDbLine
 10
396.3765828800021
 20
73.38222935785598
 30
0.0
 11
395.815401439927
 21
73.52747380230507
 31
0.0
  0
LINE
  5
2CC
330
70
100
AcDbEntity
  8
0
 62
    18
420
        0
370
    25
100
AcDbLine
 10
395.815401439927
 20
73.52747380230507
 30
0.0
 11
395.815401439927
 21
90.90347080987632
 31
0.0
  0
LWPOLYLINE
  5
2CD
330
70
100
AcDbEntity
  8
0
 62
    18
420
        0
370
    25
100
AcDbPolyline
 90
        9
 70
     0
 43
0.0
 10
401.9159135300336
 20
96.57086940780844
 10
401.9261182750179
 20
96.57383651449556
 10
401.9349263501566
 20
96.57708959690779
 10
401.9422191650532
 20
96.58058485610723
 10
401.9478985305126
 20
96.58427523253079
 10
401.9518879805444
 20
96.58811103959026
 10
401.9541338018835
 20
96.59204063264466
 10
401.9546057571831
 20
96.59601110433454
 10
401.9532974921173
 20
96.59996899691783
  0
LINE
  5
2CE
330
70
100
AcDbEntity
  8
0
 62
    18
420
        0
370
    25
100
AcDbLine
 10
401.9532974921173
 20
96.59996899691783
 30
0.0
 11
401.9447315876526
 21
96.61731459907146
 31
0.0
  0
LWPOLYLINE
  5
2CF
330
70
100
AcDbEntity
  8
0
 62
    18
420
        0
370
    25
100
AcDbPolyline
 90
       13
 70
     0
 43
0.0
 10
406.0725693395592
 20
96.61731459246549
 10
406.0363588872153
 20
96.5607568331265
 10
405.9017681933577
 20
96.45584605286352
 10
405.6870995127503
 20
96.36028051568997
 10
405.4014332293047
 20
96.2781025987417
 10
405.0568528920351
 20
96.21278838913456
 10
404.6679340866366
 20
96.16710064711986
 10
404.2511278950899
 20
96.1429719426299
 10
403.8240650226505
 20
96.14142290848093
 10
403.4048100273372
 20
96.1625190680867
 10
403.0110971976509
 20
96.20536806384864
 10
402.6595804005357
 20
96.26815740346202
 10
402.3651286306676
 20
96.34823112748462
  0
LINE
  5
2D0
330
70
100
AcDbEntity
  8
0
 62
    18
420
        0
370
    25
100
AcDbLine
 10
402.3651286306676
 20
96.34823112748462
 30
0.0
 11
402.3745589792785
 21
96.35067188130694
 31
0.0
  0
LINE
  5
2D1
330
70
100
AcDbEntity
  8
0
 62
    18
420
        0
370
    25
100
AcDbLine
 10
398.8083691203287
 20
95.76657773107475
 30
0.0
 11
401.9159135300336
 21
96.57086940780844
 31
0.0
  0
LWPOLYLINE
  5
2D2
330
70
100
AcDbEntity
  8
0
 62
    18
420
        0
370
    25
100
AcDbPolyline
 90
       13
 70
     0
 43
0.0
 10
397.1248248001027
 20
84.8850753738781
 10
397.3070401158229
 20
84.97377202581084
 10
397.4695095747226
 20
85.1359287350659
 10
397.5946270899569
 20
85.35397330607548
 10
397.6688342373518
 20
85.60427722626018
 10
397.6840895210451
 20
85.85971618200238
 10
397.6387397943375
 20
86.0926093989042
 10
397.537699403792
 20
86.27771928320319
 10
397.3919176435271
 20
86.39498630665986
 10
397.2171922293048
 20
86.43170276769758
 10
397.0324573709007
 20
86.38388986804818
 10
396.8577319566783
 20
86.25672887728228
 10
396.7481271947116
 20
86.12238020513599
  0
LWPOLYLINE
  5
2D3
330
70
100
AcDbEntity
  8
0
 62
    18
420
        0
370
    25
100
AcDbPolyline
 90
        6
 70
     0
 43
0.0
 10
396.5670631849863
 20
85.42280259229189
 10
396.5808153628537
 20
85.3226772201088
 10
396.6550225102486
 20
85.11078574598148
 10
396.7801400254828
 20
84.95750676660918
 10
396.9426094843826
 20
84.8794504377752
 10
397.1248248001027
 20
84.8850753738781
  0
LWPOLYLINE
  5
2D4
330
70
100
AcDbEntity
  8
0
 62
    18
420
        0
370
    25
100
AcDbPolyline
 90
       11
 70
     0
 43
0.0
 10
396.835624238793
 20
84.91985881744396
 10
396.8453968908752
 20
84.92003900142567
 10
397.0301317492801
 20
84.96785190107507
 10
397.2048571635023
 20
85.09501289184097
 10
397.3506389237672
 20
85.28774210726787
 10
397.4516793143127
 20
85.5251543463625
 10
397.4970290410196
 20
85.78152230918817
 10
397.4817737573269
 20
86.02906454901413
 10
397.4075666099314
 20
86.24095602314177
 10
397.2824490946972
 20
86.39423500251407
 10
397.2269648813877
 20
86.43188295167929
  0
LWPOLYLINE
  5
2D5
330
70
100
AcDbEntity
  8
0
 62
    18
420
        0
370
    25
100
AcDbPolyline
 90
       13
 70
     0
 43
0.0
 10
400.2300287685192
 20
92.07699549379212
 10
400.4122440842393
 20
92.16569214572485
 10
400.5747135431391
 20
92.3278488549799
 10
400.6998310583734
 20
92.54589342598947
 10
400.7740382057689
 20
92.79619734617417
 10
400.7892934894615
 20
93.05163630191669
 10
400.743943762754
 20
93.28452951881819
 10
400.6429033722085
 20
93.46963940311718
 10
400.4971216119442
 20
93.58690642657386
 10
400.3223961977219
 20
93.62362288761159
 10
400.1376613393171
 20
93.57580998796221
 10
399.9629359250949
 20
93.44864899719629
 10
399.8533311636395
 20
93.31430032581492
  0
LWPOLYLINE
  5
2D6
330
70
100
AcDbEntity
  8
0
 62
    18
420
        0
370
    25
100
AcDbPolyline
 90
        6
 70
     0
 43
0.0
 10
399.6722671534734
 20
92.61472271135437
 10
399.6860193312702
 20
92.51459734002279
 10
399.7602264786651
 20
92.30270586589547
 10
399.8853439939
 20
92.14942688652319
 10
400.0478134527997
 20
92.07137055768951
 10
400.2300287685192
 20
92.07699549379212
  0
LINE
  5
2D7
330
70
100
AcDbEntity
  8
0
 62
    18
420
        0
370
    25
100
AcDbLine
 10
402.3651286306676
 20
91.21975671657367
 30
0.0
 11
402.3651286306676
 21
96.34823112748462
 31
0.0
  0
SPLINE
  5
2D8
330
70
100
AcDbEntity
  8
0
 62
    18
420
        0
370
    25
100
AcDbSpline
210
0.0
220
0.0
230
1.0
 70
     8
 71
     3
 72
     8
 73
     4
 74
     0
 42
0.0000000001
 43
0.0000000001
 40
0.0
 40
0.0
 40
0.0
 40
0.0
 40
1.0
 40
1.0
 40
1.0
 40
1.0
 10
402.3651286306676
 20
91.21975671657335
 30
0.0
 10
403.4665826923332
 20
90.90725805271743
 30
0.0
 10
404.6345289322134
 20
90.91701465060337
 30
0.0
 10
405.7306086426135
 20
91.24787071193422
 30
0.0
  0
LWPOLYLINE
  5
2D9
330
70
100
AcDbEntity
  8
0
 62
    18
420
        0
370
    25
100
AcDbPolyline
 90
       13
 70
     0
 43
0.0
 10
397.1248248001027
 20
78.49684117991832
 10
397.3070401158229
 20
78.58553783185074
 10
397.4695095747226
 20
78.74769454110611
 10
397.5946270899569
 20
78.96573911211537
 10
397.6688342373518
 20
79.21604303230006
 10
397.6840895210451
 20
79.47148198804258
 10
397.6387397943375
 20
79.7043752049441
 10
397.537699403792
 20
79.88948508924308
 10
397.3919176435271
 20
80.00675211270007
 10
397.2171922293048
 20
80.04346857373747
 10
397.0324573709007
 20
79.99565567408808
 10
396.8577319566783
 20
79.86849468332218
 10
396.7481271947539
 20
79.73414601123941
  0
LWPOLYLINE
  5
2DA
330
70
100
AcDbEntity
  8
0
 62
    18
420
        0
370
    25
100
AcDbPolyline
 90
        6
 70
     0
 43
0.0
 10
396.5670631849927
 20
79.03456839825477
 10
396.5808153628537
 20
78.93444302614901
 10
396.6550225102486
 20
78.72255155202137
 10
396.7801400254828
 20
78.56927257264906
 10
396.9426094843826
 20
78.4912162438154
 10
397.1248248001027
 20
78.49684117991832
  0
LWPOLYLINE
  5
2DB
330
70
100
AcDbEntity
  8
0
 62
    18
420
        0
370
    25
100
AcDbPolyline
 90
       11
 70
     0
 43
0.0
 10
399.9408282072094
 20
92.11177893735799
 10
399.9506008592917
 20
92.11195912133968
 10
400.1353357176965
 20
92.15977202098908
 10
400.3100611319188
 20
92.28693301175496
 10
400.4558428921836
 20
92.4796622271822
 10
400.5568832827291
 20
92.71707446627649
 10
400.6022330094366
 20
92.9734424291025
 10
400.5869777257434
 20
93.22098466892846
 10
400.5127705783485
 20
93.43287614305578
 10
400.3876530631137
 20
93.58615512242808
 10
400.3321688498042
 20
93.6238030715933
  0
LWPOLYLINE
  5
2DC
330
70
100
AcDbEntity
  8
0
 62
    18
420
        0
370
    25
100
AcDbPolyline
 90
       11
 70
     0
 43
0.0
 10
396.8356242387923
 20
78.53162462348386
 10
396.8453968908752
 20
78.53180480746556
 10
397.0301317492801
 20
78.57961770711496
 10
397.2048571635023
 20
78.70677869788117
 10
397.3506389237672
 20
78.89950791330808
 10
397.4516793143127
 20
79.13692015240271
 10
397.4970290410196
 20
79.3932881152284
 10
397.4817737573269
 20
79.64083035505435
 10
397.4075666099314
 20
79.85272182918167
 10
397.2824490946972
 20
80.00600080855429
 10
397.2269648813871
 20
80.04364875771949
  0
LWPOLYLINE
  5
2DD
330
70
100
AcDbEntity
  8
0
 62
    18
420
        0
370
    25
100
AcDbPolyline
 90
       10
 70
     0
 43
0.0
 10
395.815401439927
 20
73.52747380230507
 10
395.8458655354107
 20
72.95350856006233
 10
395.936637660728
 20
72.4069969711781
 10
396.0858699571734
 20
71.89906443559356
 10
396.290524485541
 20
71.44005099497634
 10
396.5464350698094
 20
71.03930083929182
 10
396.848392108466
 20
70.70497208604135
 10
397.190248626978
 20
70.44387070451775
 10
397.5650454124601
 20
70.26131196589389
 10
397.7478130579754
 20
70.20443687595292
  0
SPLINE
  5
2DE
330
70
100
AcDbEntity
  8
0
 62
    18
420
        0
370
    25
100
AcDbSpline
210
0.0
220
0.0
230
1.0
 70
     8
 71
     3
 72
     8
 73
     4
 74
     0
 42
0.0000000001
 43
0.0000000001
 40
0.0
 40
0.0
 40
0.0
 40
0.0
 40
1.0
 40
1.0
 40
1.0
 40
1.0
 10
402.3651286306676
 20
81.00752553410925
 30
0.0
 10
403.4665826923332
 20
80.69502687025332
 30
0.0
 10
404.6345289322134
 20
80.70478346813926
 30
0.0
 10
405.7306086426141
 20
81.03563952946982
 30
0.0
  0
LINE
  5
2DF
330
70
100
AcDbEntity
  8
0
 62
    18
420
        0
370
    25
100
AcDbLine
 10
402.3651286306676
 20
81.00752553410925
 30
0.0
 11
402.3651286306676
 21
86.1359999450202
 31
0.0
  0
SPLINE
  5
2E0
330
70
100
AcDbEntity
  8
0
 62
    18
420
        0
370
    25
100
AcDbSpline
210
0.0
220
0.0
230
1.0
 70
     8
 71
     3
 72
     8
 73
     4
 74
     0
 42
0.0000000001
 43
0.0000000001
 40
0.0
 40
0.0
 40
0.0
 40
0.0
 40
1.0
 40
1.0
 40
1.0
 40
1.0
 10
402.3651286306676
 20
86.1359999450202
 30
0.0
 10
403.4665826923332
 20
85.82350128116429
 30
0.0
 10
404.6345289322134
 20
85.83325787905023
 30
0.0
 10
405.7306086426135
 20
86.16411394038077
 30
0.0
  0
LWPOLYLINE
  5
2E1
330
70
100
AcDbEntity
  8
0
 62
    18
420
        0
370
    25
100
AcDbPolyline
 90
       13
 70
     0
 43
0.0
 10
400.2300287685192
 20
72.91229291191211
 10
400.4122440842393
 20
73.00098956384485
 10
400.5747135431391
 20
73.16314627309991
 10
400.6998310583734
 20
73.38119084410981
 10
400.7740382057689
 20
73.63149476429419
 10
400.7892934894615
 20
73.88693372003669
 10
400.743943762754
 20
74.11982693693821
 10
400.6429033722085
 20
74.30493682123719
 10
400.4971216119442
 20
74.42220384469418
 10
400.3223961977213
 20
74.45892030573159
 10
400.1376613393171
 20
74.4111074060822
 10
399.9629359250949
 20
74.28394641531629
 10
399.8533311632173
 20
74.14959774330412
  0
LWPOLYLINE
  5
2E2
330
70
100
AcDbEntity
  8
0
 62
    18
420
        0
370
    25
100
AcDbPolyline
 90
        6
 70
     0
 43
0.0
 10
399.6722671534156
 20
73.45002013016899
 10
399.6860193312702
 20
73.34989475814312
 10
399.7602264786651
 20
73.13800328401581
 10
399.8853439939
 20
72.98472430464319
 10
400.0478134527991
 20
72.90666797580986
 10
400.2300287685192
 20
72.91229291191211
  0
SPLINE
  5
2E3
330
70
100
AcDbEntity
  8
0
 62
    18
420
        0
370
    25
100
AcDbSpline
210
0.0
220
0.0
230
1.0
 70
     8
 71
     3
 72
     8
 73
     4
 74
     0
 42
0.0000000001
 43
0.0000000001
 40
0.0
 40
0.0
 40
0.0
 40
0.0
 40
1.0
 40
1.0
 40
1.0
 40
1.0
 10
402.3651286306676
 20
75.92376876255578
 30
0.0
 10
403.4665826923332
 20
75.61127009869986
 30
0.0
 10
404.6345289322134
 20
75.6210266965858
 30
0.0
 10
405.7306086426135
 20
75.95188275791667
 30
0.0
  0
LINE
  5
2E4
330
70
100
AcDbEntity
  8
0
 62
    18
420
        0
370
    25
100
AcDbLine
 10
402.3651286306676
 20
70.79529435164483
 30
0.0
 11
402.3651286306676
 21
75.92376876255578
 31
0.0
  0
SPLINE
  5
2E5
330
70
100
AcDbEntity
  8
0
 62
    18
420
        0
370
    25
100
AcDbSpline
210
0.0
220
0.0
230
1.0
 70
     8
 71
     3
 72
     8
 73
     4
 74
     0
 42
0.0000000001
 43
0.0000000001
 40
0.0
 40
0.0
 40
0.0
 40
0.0
 40
1.0
 40
1.0
 40
1.0
 40
1.0
 10
402.3651286306676
 20
70.79529435164483
 30
0.0
 10
403.4665826923332
 20
70.48279568778859
 30
0.0
 10
404.6345289322134
 20
70.49255228567485
 30
0.0
 10
405.7306086426141
 20
70.8234083470054
 30
0.0
  0
LWPOLYLINE
  5
2E6
330
70
100
AcDbEntity
  8
0
 62
    18
420
        0
370
    25
100
AcDbPolyline
 90
       11
 70
     0
 43
0.0
 10
399.9408282072094
 20
72.94707635547798
 10
399.9506008592917
 20
72.94725653945969
 10
400.1353357176965
 20
72.99506943910907
 10
400.3100611319188
 20
73.12223042987497
 10
400.4558428921836
 20
73.31495964530221
 10
400.5568832827291
 20
73.55237188439682
 10
400.6022330094366
 20
73.80873984722251
 10
400.5869777257434
 20
74.05628208704879
 10
400.5127705783485
 20
74.26817356117611
 10
400.3876530631137
 20
74.42145254054809
 10
400.3321688498042
 20
74.45910048971329
  0
LINE
  5
2E7
330
70
100
AcDbEntity
  8
0
 62
    18
420
        0
370
    25
100
AcDbLine
 10
396.3765828800028
 20
114.13916351532
 30
0.0
 11
396.3765828800028
 21
131.5151605228912
 31
0.0
  0
LWPOLYLINE
  5
2E8
330
70
100
AcDbEntity
  8
0
 62
    18
420
        0
370
    25
100
AcDbPolyline
 90
       12
 70
     0
 43
0.0
 10
396.3765828800028
 20
131.5151605228912
 10
396.4070469754858
 20
132.1048951413398
 10
396.4978191008037
 20
132.698393839817
 10
396.6470513972486
 20
133.2835746963307
 10
396.8517059256167
 20
133.8485251161644
 10
397.1076165098845
 20
134.3817443379524
 10
397.4095735485418
 20
134.8723775560172
 10
397.7514300670538
 20
135.3104368929077
 10
398.1262268525359
 20
135.6870047237838
 10
398.5263341232608
 20
135.9944152135406
 10
398.9436068490105
 20
136.2264103711057
 10
399.3695505604039
 20
136.3782674440897
  0
LINE
  5
2E9
330
70
100
AcDbEntity
  8
0
 62
    18
420
        0
370
    25
100
AcDbLine
 10
402.2962220438024
 20
137.1357457627516
 30
0.0
 11
399.3695505604039
 21
136.3782674440897
 31
0.0
  0
LINE
  5
2EA
330
70
100
AcDbEntity
  8
0
 62
    18
420
        0
370
    25
100
AcDbLine
 10
399.3695505604039
 20
110.8253306682499
 30
0.0
 11
402.3651286306676
 21
111.6006433239257
 31
0.0
  0
LWPOLYLINE
  5
2EB
330
70
100
AcDbEntity
  8
0
 62
    18
420
        0
370
    25
100
AcDbPolyline
 90
       12
 70
     0
 43
0.0
 10
399.3695505604039
 20
110.8253306682499
 10
398.9436068490105
 20
110.7567030519333
 10
398.5263341232608
 20
110.7727019526468
 10
398.1262268525359
 20
110.8730016789085
 10
397.7514300670538
 20
111.0555604175327
 10
397.4095735485418
 20
111.3166617990566
 10
397.1076165098845
 20
111.6509905523067
 10
396.8517059256167
 20
112.0517407079912
 10
396.6470513972486
 20
112.5107541486085
 10
396.4978191008037
 20
113.0186866841933
 10
396.4070469754858
 20
113.5651982730772
 10
396.3765828800028
 20
114.1391635153203
  0
LWPOLYLINE
  5
2EC
330
70
100
AcDbEntity
  8
0
 62
    18
420
        0
370
    25
100
AcDbPolyline
 90
       25
 70
     0
 43
0.0
 10
400.6041497285695
 20
113.061338704227
 10
400.3620756544872
 20
113.0422200838552
 10
400.1364985285068
 20
113.1114738865191
 10
399.9427910589808
 20
113.2643805800142
 10
399.7941540898405
 20
113.49051982587
 10
399.7007169848985
 20
113.7744806081931
 10
399.6688473284442
 20
114.0969114689366
 10
399.7007169848985
 20
114.4358392777819
 10
399.7941540898405
 20
114.7681666646618
 10
399.9427910589808
 20
115.071246067357
 10
400.1364985285068
 20
115.3244231254363
 10
400.3620756544872
 20
115.5104442407864
 10
400.6041497285695
 20
115.616632381811
 10
400.8462238026524
 20
115.6357510021827
 10
401.0718009286322
 20
115.5664971995189
 10
401.2655083981583
 20
115.4135905060237
 10
401.4141453672992
 20
115.187451260168
 10
401.5075824722412
 20
114.9034904778446
 10
401.5394521286949
 20
114.5810596171014
 10
401.5075824722412
 20
114.2421318082558
 10
401.4141453672992
 20
113.9098044213762
 10
401.2655083981583
 20
113.606725018681
 10
401.0718009286322
 20
113.3535479606017
 10
400.8462238026524
 20
113.1675268452512
 10
400.6041497285695
 20
113.061338704227
  0
LWPOLYLINE
  5
2ED
330
70
100
AcDbEntity
  8
0
 62
    18
420
        0
370
    25
100
AcDbPolyline
 90
       25
 70
     0
 43
0.0
 10
397.4989457601531
 20
118.6458869722329
 10
397.2568716860708
 20
118.6267683518608
 10
397.0312945600903
 20
118.6960221545246
 10
396.8375870905642
 20
118.8489288480201
 10
396.6889501214239
 20
119.0750680938755
 10
396.595513016482
 20
119.359028876199
 10
396.5636433600276
 20
119.6814597369421
 10
396.595513016482
 20
120.0203875457877
 10
396.6889501214239
 20
120.3527149326677
 10
396.8375870905642
 20
120.6557943353629
 10
397.0312945600903
 20
120.9089713934422
 10
397.2568716860708
 20
121.0949925087923
 10
397.4989457601531
 20
121.2011806498169
 10
397.7410198342359
 20
121.2202992701886
 10
397.9665969602157
 20
121.1510454675248
 10
398.1603044297418
 20
120.9981387740293
 10
398.3089413988828
 20
120.7719995281739
 10
398.4023785038247
 20
120.4880387458505
 10
398.4342481602785
 20
120.1656078851073
 10
398.4023785038247
 20
119.8266800762617
 10
398.3089413988828
 20
119.4943526893821
 10
398.1603044297418
 20
119.1912732866865
 10
397.9665969602157
 20
118.9380962286072
 10
397.7410198342359
 20
118.7520751132571
 10
397.4989457601531
 20
118.6458869722329
  0
LWPOLYLINE
  5
2EE
330
70
100
AcDbEntity
  8
0
 62
    18
420
        0
370
    25
100
AcDbPolyline
 90
       25
 70
     0
 43
0.0
 10
397.4989457601531
 20
125.0341211661927
 10
397.2568716860708
 20
125.0150025458209
 10
397.0312945600903
 20
125.0842563484847
 10
396.8375870905642
 20
125.2371630419802
 10
396.6889501214239
 20
125.4633022878356
 10
396.595513016482
 20
125.7472630701591
 10
396.5636433600276
 20
126.0696939309022
 10
396.595513016482
 20
126.4086217397478
 10
396.6889501214239
 20
126.7409491266278
 10
396.8375870905642
 20
127.044028529323
 10
397.0312945600903
 20
127.2972055874023
 10
397.2568716860708
 20
127.4832267027524
 10
397.4989457601531
 20
127.5894148437766
 10
397.7410198342359
 20
127.6085334641487
 10
397.9665969602157
 20
127.5392796614849
 10
398.1603044297418
 20
127.3863729679894
 10
398.3089413988821
 20
127.1602337221337
 10
398.4023785038247
 20
126.8762729398106
 10
398.4342481602785
 20
126.5538420790674
 10
398.4023785038247
 20
126.2149142702218
 10
398.3089413988828
 20
125.8825868833418
 10
398.1603044297418
 20
125.5795074806467
 10
397.9665969602157
 20
125.3263304225673
 10
397.7410198342359
 20
125.1403093072172
 10
397.4989457601531
 20
125.0341211661927
  0
LWPOLYLINE
  5
2EF
330
70
100
AcDbEntity
  8
0
 62
    18
420
        0
370
    25
100
AcDbPolyline
 90
       25
 70
     0
 43
0.0
 10
400.6041497285695
 20
132.226041286107
 10
400.3620756544872
 20
132.2069226657349
 10
400.1364985285068
 20
132.2761764683987
 10
399.9427910589808
 20
132.4290831618942
 10
399.7941540898405
 20
132.6552224077496
 10
399.7007169848985
 20
132.9391831900731
 10
399.6688473284442
 20
133.2616140508162
 10
399.7007169848985
 20
133.6005418596619
 10
399.7941540898405
 20
133.9328692465418
 10
399.9427910589814
 20
134.235948649237
 10
400.1364985285068
 20
134.4891257073163
 10
400.3620756544872
 20
134.6751468226664
 10
400.6041497285695
 20
134.781334963691
 10
400.8462238026524
 20
134.8004535840628
 10
401.0718009286328
 20
134.7311997813989
 10
401.265508398159
 20
134.5782930879034
 10
401.4141453672992
 20
134.352153842048
 10
401.5075824722412
 20
134.0681930597246
 10
401.5394521286956
 20
133.7457621989814
 10
401.5075824722412
 20
133.4068343901358
 10
401.4141453672992
 20
133.0745070032558
 10
401.2655083981583
 20
132.7714276005606
 10
401.0718009286322
 20
132.5182505424813
 10
400.8462238026524
 20
132.3322294271312
 10
400.6041497285695
 20
132.226041286107
  0
LINE
  5
2F0
330
70
100
AcDbEntity
  8
0
 62
    18
420
        0
370
    25
100
AcDbLine
 10
399.3695505604039
 20
136.3782674440897
 30
0.0
 11
398.8083691203287
 21
136.5235118885394
 31
0.0
  0
LINE
  5
2F1
330
70
100
AcDbEntity
  8
0
 62
    18
420
        0
370
    25
100
AcDbLine
 10
395.815401439927
 20
131.6604049673406
 30
0.0
 11
396.3765828800028
 21
131.5151605228912
 31
0.0
  0
LWPOLYLINE
  5
2F2
330
70
100
AcDbEntity
  8
0
 62
    18
420
        0
370
    25
100
AcDbPolyline
 90
       12
 70
     0
 43
0.0
 10
398.8083691203287
 20
136.5235118885394
 10
398.3824254089353
 20
136.3716548155554
 10
397.9651526831857
 20
136.1396596579904
 10
397.5650454124608
 20
135.8322491682332
 10
397.1902486269787
 20
135.4556813373571
 10
396.8483921084667
 20
135.0176220004666
 10
396.5464350698094
 20
134.5269887824021
 10
396.2905244855416
 20
133.9937695606138
 10
396.0858699571734
 20
133.4288191407801
 10
395.936637660728
 20
132.8436382842667
 10
395.8458655354107
 20
132.2501395857895
 10
395.815401439927
 20
131.6604049673406
  0
LINE
  5
2F3
330
70
100
AcDbEntity
  8
0
 62
    18
420
        0
370
    25
100
AcDbLine
 10
396.3765828800028
 20
114.13916351532
 30
0.0
 11
395.815401439927
 21
114.2844079597697
 31
0.0
  0
LINE
  5
2F4
330
70
100
AcDbEntity
  8
0
 62
    18
420
        0
370
    25
100
AcDbLine
 10
395.815401439927
 20
114.2844079597697
 30
0.0
 11
395.815401439927
 21
131.6604049673406
 31
0.0
  0
LWPOLYLINE
  5
2F5
330
70
100
AcDbEntity
  8
0
 62
    18
420
        0
370
    25
100
AcDbPolyline
 90
        9
 70
     0
 43
0.0
 10
401.9159135300336
 20
137.3278035652727
 10
401.9261182750185
 20
137.3307706719599
 10
401.9349263501566
 20
137.3340237543721
 10
401.9422191650532
 20
137.3375190135719
 10
401.9478985305132
 20
137.3412093899954
 10
401.9518879805444
 20
137.3450451970549
 10
401.9541338018842
 20
137.3489747901093
 10
401.9546057571831
 20
137.3529452617989
 10
401.9532974921173
 20
137.3569031543821
  0
LINE
  5
2F6
330
70
100
AcDbEntity
  8
0
 62
    18
420
        0
370
    25
100
AcDbLine
 10
401.9532974921173
 20
137.3569031543821
 30
0.0
 11
401.9447315958156
 21
137.3742487375562
 31
0.0
  0
LWPOLYLINE
  5
2F7
330
70
100
AcDbEntity
  8
0
 62
    18
420
        0
370
    25
100
AcDbPolyline
 90
       13
 70
     0
 43
0.0
 10
406.07256932902
 20
137.3742487254246
 10
406.036358887216
 20
137.3176909905911
 10
405.9017681933577
 20
137.2127802103278
 10
405.687099512751
 20
137.1172146731546
 10
405.4014332293047
 20
137.0350367562063
 10
405.0568528920351
 20
136.9697225465989
 10
404.6679340866372
 20
136.9240348045845
 10
404.2511278950899
 20
136.8999061000945
 10
403.8240650226505
 20
136.8983570659456
 10
403.4048100273372
 20
136.919453225551
 10
403.0110971976509
 20
136.962302221313
 10
402.6595804005364
 20
137.0250915609263
 10
402.3651286306682
 20
137.1051652849489
  0
LINE
  5
2F8
330
70
100
AcDbEntity
  8
0
 62
    18
420
        0
370
    25
100
AcDbLine
 10
402.3651286306682
 20
137.1051652849489
 30
0.0
 11
402.3745589792785
 21
137.1076060387716
 31
0.0
  0
LINE
  5
2F9
330
70
100
AcDbEntity
  8
0
 62
    18
420
        0
370
    25
100
AcDbLine
 10
398.8083691203287
 20
136.5235118885394
 30
0.0
 11
401.9159135300336
 21
137.3278035652727
 31
0.0
  0
LWPOLYLINE
  5
2FA
330
70
100
AcDbEntity
  8
0
 62
    18
420
        0
370
    25
100
AcDbPolyline
 90
       13
 70
     0
 43
0.0
 10
397.1248248001027
 20
125.6420095313424
 10
397.3070401158229
 20
125.7307061832752
 10
397.4695095747226
 20
125.8928628925305
 10
397.5946270899569
 20
126.1109074635398
 10
397.6688342373524
 20
126.3612113837245
 10
397.6840895210451
 20
126.616650339467
 10
397.6387397943375
 20
126.8495435563685
 10
397.537699403792
 20
127.0346534406675
 10
397.3919176435278
 20
127.1519204641245
 10
397.2171922293055
 20
127.1886369251619
 10
397.0324573709007
 20
127.1408240255125
 10
396.8577319566783
 20
127.0136630347466
 10
396.7481271897743
 20
126.879314355214
  0
LWPOLYLINE
  5
2FB
330
70
100
AcDbEntity
  8
0
 62
    18
420
        0
370
    25
100
AcDbPolyline
 90
        6
 70
     0
 43
0.0
 10
396.5670631842695
 20
126.1797367583999
 10
396.5808153628537
 20
126.0796113775734
 10
396.6550225102492
 20
125.8677199034458
 10
396.7801400254835
 20
125.7144409240735
 10
396.9426094843833
 20
125.6363845952398
 10
397.1248248001034
 20
125.6420095313424
  0
LWPOLYLINE
  5
2FC
330
70
100
AcDbEntity
  8
0
 62
    18
420
        0
370
    25
100
AcDbPolyline
 90
       11
 70
     0
 43
0.0
 10
396.8356242306299
 20
125.6767929748598
 10
396.8453968908758
 20
125.67697315889
 10
397.0301317492801
 20
125.7247860585394
 10
397.2048571635023
 20
125.8519470493056
 10
397.3506389237672
 20
126.0446762647325
 10
397.4516793143127
 20
126.2820885038271
 10
397.4970290410202
 20
126.5384564666528
 10
397.4817737573269
 20
126.7859987064788
 10
397.4075666099321
 20
126.9978901806061
 10
397.2824490946978
 20
127.1511691599787
 10
397.226964873867
 20
127.1888171133753
  0
LWPOLYLINE
  5
2FD
330
70
100
AcDbEntity
  8
0
 62
    18
420
        0
370
    25
100
AcDbPolyline
 90
       13
 70
     0
 43
0.0
 10
400.2300287685199
 20
132.8339296512568
 10
400.4122440842393
 20
132.9226263031892
 10
400.5747135431391
 20
133.0847830124445
 10
400.699831058374
 20
133.3028275834538
 10
400.7740382057689
 20
133.5531315036385
 10
400.7892934894615
 20
133.808570459381
 10
400.7439437627546
 20
134.0414636762825
 10
400.6429033722091
 20
134.2265735605815
 10
400.4971216119442
 20
134.3438405840385
 10
400.3223961977219
 20
134.3805570450762
 10
400.1376613393171
 20
134.3327441454268
 10
399.9629359250949
 20
134.2055831546606
 10
399.8533311688655
 20
134.0712344910964
  0
LWPOLYLINE
  5
2FE
330
70
100
AcDbEntity
  8
0
 62
    18
420
        0
370
    25
100
AcDbPolyline
 90
        6
 70
     0
 43
0.0
 10
399.6722671542364
 20
133.3716568596276
 10
399.6860193312709
 20
133.2715314974874
 10
399.7602264786658
 20
133.0596400233598
 10
399.8853439939
 20
132.9063610439875
 10
400.0478134527997
 20
132.8283047151538
 10
400.2300287685199
 20
132.8339296512568
  0
LINE
  5
2FF
330
70
100
AcDbEntity
  8
0
 62
    18
420
        0
370
    25
100
AcDbLine
 10
402.3651286306682
 20
131.976690874038
 30
0.0
 11
402.3651286306682
 21
137.1051652849489
 31
0.0
  0
SPLINE
  5
300
330
70
100
AcDbEntity
  8
0
 62
    18
420
        0
370
    25
100
AcDbSpline
210
0.0
220
0.0
230
1.0
 70
     8
 71
     3
 72
     8
 73
     4
 74
     0
 42
0.0000000001
 43
0.0000000001
 40
0.0
 40
0.0
 40
0.0
 40
0.0
 40
1.0
 40
1.0
 40
1.0
 40
1.0
 10
402.3651286306682
 20
131.976690874038
 30
0.0
 10
403.4665826923332
 20
131.6641922101821
 30
0.0
 10
404.6345289322134
 20
131.673948808068
 30
0.0
 10
405.7306086426141
 20
132.0048048693989
 30
0.0
  0
LWPOLYLINE
  5
301
330
70
100
AcDbEntity
  8
0
 62
    18
420
        0
370
    25
100
AcDbPolyline
 90
       13
 70
     0
 43
0.0
 10
397.1248248001027
 20
119.2537753373826
 10
397.3070401158229
 20
119.3424719893151
 10
397.4695095747226
 20
119.5046286985704
 10
397.5946270899569
 20
119.72267326958
 10
397.6688342373524
 20
119.9729771897644
 10
397.6840895210451
 20
120.2284161455069
 10
397.6387397943375
 20
120.4613093624084
 10
397.5376994037927
 20
120.6464192467077
 10
397.3919176435278
 20
120.7636862701644
 10
397.2171922293055
 20
120.8004027312021
 10
397.0324573709007
 20
120.7525898315527
 10
396.8577319566783
 20
120.6254288407865
 10
396.7481271951634
 20
120.4910801693166
  0
LWPOLYLINE
  5
302
330
70
100
AcDbEntity
  8
0
 62
    18
420
        0
370
    25
100
AcDbPolyline
 90
        6
 70
     0
 43
0.0
 10
396.5670631850505
 20
119.7915025550219
 10
396.5808153628537
 20
119.6913771836133
 10
396.6550225102486
 20
119.479485709486
 10
396.7801400254835
 20
119.3262067301134
 10
396.9426094843833
 20
119.2481504012797
 10
397.1248248001027
 20
119.2537753373826
  0
LWPOLYLINE
  5
303
330
70
100
AcDbEntity
  8
0
 62
    18
420
        0
370
    25
100
AcDbPolyline
 90
       11
 70
     0
 43
0.0
 10
399.9408281967279
 20
132.86871309476
 10
399.9506008592923
 20
132.868893278804
 10
400.1353357176971
 20
132.9167061784537
 10
400.3100611319194
 20
133.0438671692196
 10
400.4558428921836
 20
133.2365963846465
 10
400.5568832827291
 20
133.4740086237411
 10
400.6022330094366
 20
133.7303765865668
 10
400.5869777257441
 20
133.9779188263928
 10
400.5127705783485
 20
134.1898103005204
 10
400.3876530631143
 20
134.3430892798927
 10
400.3321688402095
 20
134.3807372344562
  0
LWPOLYLINE
  5
304
330
70
100
AcDbEntity
  8
0
 62
    18
420
        0
370
    25
100
AcDbPolyline
 90
       11
 70
     0
 43
0.0
 10
396.8356242387897
 20
119.2885587809485
 10
396.8453968908758
 20
119.2887389649302
 10
397.0301317492801
 20
119.3365518645796
 10
397.2048571635023
 20
119.4637128553455
 10
397.3506389237672
 20
119.6564420707724
 10
397.4516793143127
 20
119.893854309867
 10
397.4970290410202
 20
120.1502222726927
 10
397.4817737573269
 20
120.3977645125187
 10
397.4075666099321
 20
120.6096559866463
 10
397.2824490946978
 20
120.7629349660186
 10
397.2269648813851
 20
120.8005829151854
  0
LWPOLYLINE
  5
305
330
70
100
AcDbEntity
  8
0
 62
    18
420
        0
370
    25
100
AcDbPolyline
 90
       10
 70
     0
 43
0.0
 10
395.815401439927
 20
114.2844079597697
 10
395.8458655354107
 20
113.710442717527
 10
395.936637660728
 20
113.1639311286428
 10
396.0858699571734
 20
112.6559985930582
 10
396.2905244855416
 20
112.1969851524407
 10
396.5464350698094
 20
111.7962349967561
 10
396.8483921084667
 20
111.461906243506
 10
397.190248626978
 20
111.2008048619821
 10
397.5650454124608
 20
111.0182461233582
 10
397.747813057976
 20
110.9613710334172
  0
SPLINE
  5
306
330
70
100
AcDbEntity
  8
0
 62
    18
420
        0
370
    25
100
AcDbSpline
210
0.0
220
0.0
230
1.0
 70
     8
 71
     3
 72
     8
 73
     4
 74
     0
 42
0.0000000001
 43
0.0000000001
 40
0.0
 40
0.0
 40
0.0
 40
0.0
 40
1.0
 40
1.0
 40
1.0
 40
1.0
 10
402.3651286306682
 20
121.7644596915736
 30
0.0
 10
403.4665826923332
 20
121.4519610277176
 30
0.0
 10
404.6345289322134
 20
121.4617176256036
 30
0.0
 10
405.7306086426141
 20
121.7925736869345
 30
0.0
  0
LINE
  5
307
330
70
100
AcDbEntity
  8
0
 62
    18
420
        0
370
    25
100
AcDbLine
 10
402.3651286306682
 20
121.7644596915736
 30
0.0
 11
402.3651286306682
 21
126.8929341024845
 31
0.0
  0
SPLINE
  5
308
330
70
100
AcDbEntity
  8
0
 62
    18
420
        0
370
    25
100
AcDbSpline
210
0.0
220
0.0
230
1.0
 70
     8
 71
     3
 72
     8
 73
     4
 74
     0
 42
0.0000000001
 43
0.0000000001
 40
0.0
 40
0.0
 40
0.0
 40
0.0
 40
1.0
 40
1.0
 40
1.0
 40
1.0
 10
402.3651286306682
 20
126.8929341024845
 30
0.0
 10
403.4665826923332
 20
126.5804354386286
 30
0.0
 10
404.6345289322134
 20
126.5901920365145
 30
0.0
 10
405.7306086426141
 20
126.9210480978454
 30
0.0
  0
LWPOLYLINE
  5
309
330
70
100
AcDbEntity
  8
0
 62
    18
420
        0
370
    25
100
AcDbPolyline
 90
       13
 70
     0
 43
0.0
 10
400.2300287685199
 20
113.6692270693768
 10
400.4122440842393
 20
113.7579237213095
 10
400.5747135431391
 20
113.9200804305645
 10
400.699831058374
 20
114.1381250015741
 10
400.7740382057689
 20
114.3884289217588
 10
400.7892934894615
 20
114.643867877501
 10
400.7439437627546
 20
114.8767610944029
 10
400.6429033722091
 20
115.0618709787018
 10
400.4971216119442
 20
115.1791380021585
 10
400.3223961977219
 20
115.2158544631962
 10
400.1376613393171
 20
115.1680415635468
 10
399.9629359250949
 20
115.0408805727809
 10
399.8533311642433
 20
114.9065319023021
  0
LWPOLYLINE
  5
30A
330
70
100
AcDbEntity
  8
0
 62
    18
420
        0
370
    25
100
AcDbPolyline
 90
        6
 70
     0
 43
0.0
 10
399.6722671535626
 20
114.2069542858683
 10
399.6860193312702
 20
114.1068289156074
 10
399.7602264786658
 20
113.8949374414801
 10
399.8853439939
 20
113.7416584621078
 10
400.0478134527997
 20
113.6636021332741
 10
400.2300287685199
 20
113.6692270693768
  0
LINE
  5
30B
330
70
100
AcDbEntity
  8
0
 62
    18
420
        0
370
    25
100
AcDbLine
 10
402.3651286306676
 20
111.5522285091091
 30
0.0
 11
402.3651286306682
 21
116.6807029200201
 31
0.0
  0
SPLINE
  5
30C
330
70
100
AcDbEntity
  8
0
 62
    18
420
        0
370
    25
100
AcDbSpline
210
0.0
220
0.0
230
1.0
 70
     8
 71
     3
 72
     8
 73
     4
 74
     0
 42
0.0000000001
 43
0.0000000001
 40
0.0
 40
0.0
 40
0.0
 40
0.0
 40
1.0
 40
1.0
 40
1.0
 40
1.0
 10
402.3651286306682
 20
116.6807029200201
 30
0.0
 10
403.4665826923332
 20
116.3682042561645
 30
0.0
 10
404.6345289322134
 20
116.3779608540504
 30
0.0
 10
405.7306086426141
 20
116.708816915381
 30
0.0
  0
SPLINE
  5
30D
330
70
100
AcDbEntity
  8
0
 62
    18
420
        0
370
    25
100
AcDbSpline
210
0.0
220
0.0
230
1.0
 70
     8
 71
     3
 72
     8
 73
     4
 74
     0
 42
0.0000000001
 43
0.0000000001
 40
0.0
 40
0.0
 40
0.0
 40
0.0
 40
1.0
 40
1.0
 40
1.0
 40
1.0
 10
402.3651286306682
 20
111.5522285091091
 30
0.0
 10
403.4665826923339
 20
111.2397298452532
 30
0.0
 10
404.6345289322134
 20
111.2494864431392
 30
0.0
 10
405.7306086426141
 20
111.58034250447
 30
0.0
  0
LWPOLYLINE
  5
30E
330
70
100
AcDbEntity
  8
0
 62
    18
420
        0
370
    25
100
AcDbPolyline
 90
       11
 70
     0
 43
0.0
 10
399.940828212128
 20
113.7040105129721
 10
399.9506008592923
 20
113.7041906969243
 10
400.1353357176965
 20
113.7520035965737
 10
400.3100611319194
 20
113.8791645873396
 10
400.4558428921836
 20
114.0718938027665
 10
400.5568832827291
 20
114.3093060418611
 10
400.6022330094366
 20
114.5656740046868
 10
400.5869777257434
 20
114.8132162445131
 10
400.5127705783485
 20
115.0251077186404
 10
400.3876530631143
 20
115.1783866980127
 10
400.3321688544071
 20
115.2160346445884
  0
LINE
  5
30F
330
70
100
AcDbEntity
  8
0
 62
    18
420
        0
370
    25
100
AcDbLine
 10
396.3765828800021
 20
32.62529520039131
 30
0.0
 11
396.3765828800021
 21
50.00129220796223
 31
0.0
  0
LWPOLYLINE
  5
310
330
70
100
AcDbEntity
  8
0
 62
    18
420
        0
370
    25
100
AcDbPolyline
 90
       12
 70
     0
 43
0.0
 10
396.3765828800021
 20
50.00129220796223
 10
396.4070469754858
 20
50.5910268264108
 10
396.4978191008031
 20
51.184525524888
 10
396.6470513972486
 20
51.76970638140171
 10
396.8517059256167
 20
52.33465680123505
 10
397.1076165098845
 20
52.8678760230237
 10
397.4095735485418
 20
53.35850924108786
 10
397.7514300670532
 20
53.79656857797839
 10
398.1262268525359
 20
54.17313640885479
 10
398.5263341232608
 20
54.48054689861196
 10
398.9436068490105
 20
54.71254205617671
 10
399.3695505604039
 20
54.864399129161
  0
LINE
  5
311
330
70
100
AcDbEntity
  8
0
 62
    18
420
        0
370
    25
100
AcDbLine
 10
402.2962220438017
 20
55.62187744782294
 30
0.0
 11
399.3695505604039
 21
54.864399129161
 31
0.0
  0
LINE
  5
312
330
70
100
AcDbEntity
  8
0
 62
    18
420
        0
370
    25
100
AcDbLine
 10
399.3695505604039
 20
29.31146235332122
 30
0.0
 11
402.3651286306676
 21
30.08677500899676
 31
0.0
  0
LWPOLYLINE
  5
313
330
70
100
AcDbEntity
  8
0
 62
    18
420
        0
370
    25
100
AcDbPolyline
 90
       12
 70
     0
 43
0.0
 10
399.3695505604039
 20
29.31146235332122
 10
398.9436068490105
 20
29.24283473700433
 10
398.5263341232608
 20
29.25883363771784
 10
398.1262268525359
 20
29.35913336397949
 10
397.7514300670532
 20
29.54169210260399
 10
397.4095735485418
 20
29.80279348412759
 10
397.1076165098839
 20
30.13712223737743
 10
396.8517059256161
 20
30.53787239306194
 10
396.6470513972486
 20
30.9968858336798
 10
396.4978191008031
 20
31.50481836926434
 10
396.4070469754858
 20
32.05132995814857
 10
396.3765828800021
 20
32.62529520039131
  0
LWPOLYLINE
  5
314
330
70
100
AcDbEntity
  8
0
 62
    18
420
        0
370
    25
100
AcDbPolyline
 90
       25
 70
     0
 43
0.0
 10
400.6041497285695
 20
31.5474703892977
 10
400.3620756544866
 20
31.52835176892624
 10
400.1364985285068
 20
31.59760557159009
 10
399.9427910589808
 20
31.75051226508559
 10
399.7941540898405
 20
31.97665151094067
 10
399.7007169848978
 20
32.26061229326441
 10
399.6688473284442
 20
32.58304315400726
 10
399.7007169848978
 20
32.9219709628532
 10
399.7941540898405
 20
33.25429834973313
 10
399.9427910589808
 20
33.55737775242834
 10
400.1364985285068
 20
33.81055481050733
 10
400.3620756544866
 20
33.99657592585778
 10
400.6041497285695
 20
34.10276406688199
 10
400.8462238026518
 20
34.12188268725409
 10
401.0718009286322
 20
34.05262888459024
 10
401.2655083981583
 20
33.89972219109474
 10
401.4141453672986
 20
33.67358294523902
 10
401.5075824722406
 20
33.38962216291591
 10
401.5394521286949
 20
33.06719130217242
 10
401.5075824722406
 20
32.72826349332713
 10
401.4141453672986
 20
32.39593610644719
 10
401.2655083981583
 20
32.09285670375199
 10
401.0718009286322
 20
31.83967964567235
 10
400.8462238026518
 20
31.65365853032255
 10
400.6041497285695
 20
31.5474703892977
  0
LWPOLYLINE
  5
315
330
70
100
AcDbEntity
  8
0
 62
    18
420
        0
370
    25
100
AcDbPolyline
 90
       25
 70
     0
 43
0.0
 10
397.4989457601531
 20
37.1320186573039
 10
397.2568716860702
 20
37.1129000369318
 10
397.0312945600903
 20
37.18215383959564
 10
396.8375870905642
 20
37.33506053309115
 10
396.6889501214233
 20
37.56119977894687
 10
396.5955130164813
 20
37.84516056126997
 10
396.5636433600276
 20
38.16759142201346
 10
396.5955130164813
 20
38.50651923085877
 10
396.6889501214233
 20
38.83884661773869
 10
396.8375870905642
 20
39.1419260204339
 10
397.0312945600903
 20
39.39510307851355
 10
397.2568716860702
 20
39.58112419386334
 10
397.4989457601531
 20
39.68731233488755
 10
397.7410198342353
 20
39.70643095525965
 10
397.9665969602157
 20
39.6371771525958
 10
398.1603044297418
 20
39.4842704591003
 10
398.3089413988821
 20
39.25813121324458
 10
398.4023785038241
 20
38.97417043092147
 10
398.4342481602785
 20
38.65173957017864
 10
398.4023785038241
 20
38.31281176133268
 10
398.3089413988821
 20
37.98048437445275
 10
398.1603044297418
 20
37.67740497175755
 10
397.9665969602157
 20
37.42422791367855
 10
397.7410198342353
 20
37.23820679832811
 10
397.4989457601531
 20
37.1320186573039
  0
LWPOLYLINE
  5
316
330
70
100
AcDbEntity
  8
0
 62
    18
420
        0
370
    25
100
AcDbPolyline
 90
       25
 70
     0
 43
0.0
 10
397.4989457601531
 20
43.52025285126368
 10
397.2568716860702
 20
43.50113423089158
 10
397.0312945600903
 20
43.57038803355543
 10
396.8375870905642
 20
43.72329472705093
 10
396.6889501214233
 20
43.94943397290665
 10
396.5955130164813
 20
44.23339475522976
 10
396.5636433600276
 20
44.55582561597324
 10
396.5955130164813
 20
44.89475342481854
 10
396.6889501214233
 20
45.22708081169848
 10
396.8375870905642
 20
45.53016021439368
 10
397.0312945600903
 20
45.78333727247332
 10
397.2568716860702
 20
45.96935838782313
 10
397.4989457601531
 20
46.07554652884798
 10
397.7410198342353
 20
46.09466514921943
 10
397.9665969602157
 20
46.02541134655559
 10
398.1603044297418
 20
45.87250465306008
 10
398.3089413988821
 20
45.64636540720501
 10
398.4023785038241
 20
45.36240462488126
 10
398.4342481602785
 20
45.03997376413841
 10
398.4023785038241
 20
44.70104595529247
 10
398.3089413988821
 20
44.36871856841253
 10
398.1603044297418
 20
44.06563916571733
 10
397.9665969602157
 20
43.81246210763833
 10
397.7410198342353
 20
43.62644099228789
 10
397.4989457601531
 20
43.52025285126368
  0
LWPOLYLINE
  5
317
330
70
100
AcDbEntity
  8
0
 62
    18
420
        0
370
    25
100
AcDbPolyline
 90
       25
 70
     0
 43
0.0
 10
400.6041497285695
 20
50.71217297117769
 10
400.3620756544866
 20
50.69305435080623
 10
400.1364985285068
 20
50.76230815347008
 10
399.9427910589808
 20
50.91521484696494
 10
399.7941540898405
 20
51.14135409282067
 10
399.7007169848985
 20
51.42531487514441
 10
399.6688473284442
 20
51.74774573588726
 10
399.7007169848985
 20
52.0866735447332
 10
399.7941540898405
 20
52.41900093161249
 10
399.9427910589808
 20
52.72208033430769
 10
400.1364985285068
 20
52.97525739238733
 10
400.3620756544872
 20
53.16127850773778
 10
400.6041497285695
 20
53.26746664876199
 10
400.8462238026518
 20
53.28658526913344
 10
401.0718009286322
 20
53.2173314664696
 10
401.2655083981583
 20
53.06442477297474
 10
401.4141453672986
 20
52.83828552711902
 10
401.5075824722406
 20
52.55432474479591
 10
401.5394521286949
 20
52.23189388405242
 10
401.5075824722406
 20
51.89296607520712
 10
401.4141453672986
 20
51.56063868832719
 10
401.2655083981583
 20
51.25755928563198
 10
401.0718009286322
 20
51.00438222755235
 10
400.8462238026518
 20
50.8183611122019
 10
400.6041497285695
 20
50.71217297117769
  0
LINE
  5
318
330
70
100
AcDbEntity
  8
0
 62
    18
420
        0
370
    25
100
AcDbLine
 10
399.3695505604039
 20
54.864399129161
 30
0.0
 11
398.8083691203287
 21
55.0096435736101
 31
0.0
  0
LINE
  5
319
330
70
100
AcDbEntity
  8
0
 62
    18
420
        0
370
    25
100
AcDbLine
 10
395.815401439927
 20
50.14653665241198
 30
0.0
 11
396.3765828800021
 21
50.00129220796223
 31
0.0
  0
LWPOLYLINE
  5
31A
330
70
100
AcDbEntity
  8
0
 62
    18
420
        0
370
    25
100
AcDbPolyline
 90
       12
 70
     0
 43
0.0
 10
398.8083691203287
 20
55.0096435736101
 10
398.3824254089347
 20
54.85778650062645
 10
397.965152683185
 20
54.62579134306107
 10
397.5650454124601
 20
54.31838085330454
 10
397.190248626978
 20
53.94181302242813
 10
396.848392108466
 20
53.50375368553761
 10
396.5464350698088
 20
53.0131204674728
 10
396.290524485541
 20
52.4799012456848
 10
396.0858699571734
 20
51.91495082585145
 10
395.936637660728
 20
51.32976996933773
 10
395.8458655354107
 20
50.73627127086055
 10
395.815401439927
 20
50.14653665241198
  0
LINE
  5
31B
330
70
100
AcDbEntity
  8
0
 62
    18
420
        0
370
    25
100
AcDbLine
 10
396.3765828800021
 20
32.62529520039131
 30
0.0
 11
395.815401439927
 21
32.77053964484041
 31
0.0
  0
LINE
  5
31C
330
70
100
AcDbEntity
  8
0
 62
    18
420
        0
370
    25
100
AcDbLine
 10
395.815401439927
 20
32.77053964484041
 30
0.0
 11
395.815401439927
 21
50.14653665241198
 31
0.0
  0
LWPOLYLINE
  5
31D
330
70
100
AcDbEntity
  8
0
 62
    18
420
        0
370
    25
100
AcDbPolyline
 90
        9
 70
     0
 43
0.0
 10
401.9159135300336
 20
55.81393525034378
 10
401.9261182750179
 20
55.81690235703121
 10
401.9349263501566
 20
55.82015543944311
 10
401.9422191650532
 20
55.82365069864256
 10
401.9478985305126
 20
55.82734107506643
 10
401.9518879805437
 20
55.8311768821256
 10
401.9541338018835
 20
55.83510647517999
 10
401.9546057571824
 20
55.8390769468702
 10
401.9532974921173
 20
55.84303483945349
  0
LINE
  5
31E
330
70
100
AcDbEntity
  8
0
 62
    18
420
        0
370
    25
100
AcDbLine
 10
401.9532974921173
 20
55.84303483945349
 30
0.0
 11
401.9447315777197
 21
55.86038046470314
 31
0.0
  0
LWPOLYLINE
  5
31F
330
70
100
AcDbEntity
  8
0
 62
    18
420
        0
370
    25
100
AcDbPolyline
 90
       13
 70
     0
 43
0.0
 10
406.0725693523842
 20
55.86038046482122
 10
406.0363588872153
 20
55.80382267566182
 10
405.9017681933577
 20
55.69891189539885
 10
405.6870995127503
 20
55.60334635822562
 10
405.4014332293047
 20
55.52116844127703
 10
405.0568528920345
 20
55.4558542316699
 10
404.6679340866366
 20
55.41016648965518
 10
404.2511278950899
 20
55.38603778516555
 10
403.8240650226499
 20
55.38448875101627
 10
403.4048100273372
 20
55.40558491062204
 10
403.0110971976509
 20
55.44843390638398
 10
402.6595804005357
 20
55.51122324599736
 10
402.3651286306676
 20
55.59129697001996
  0
LINE
  5
320
330
70
100
AcDbEntity
  8
0
 62
    18
420
        0
370
    25
100
AcDbLine
 10
402.3651286306676
 20
55.59129697001996
 30
0.0
 11
402.3745589792785
 21
55.59373772384226
 31
0.0
  0
LINE
  5
321
330
70
100
AcDbEntity
  8
0
 62
    18
420
        0
370
    25
100
AcDbLine
 10
398.8083691203287
 20
55.0096435736101
 30
0.0
 11
401.9159135300336
 21
55.81393525034378
 31
0.0
  0
LWPOLYLINE
  5
322
330
70
100
AcDbEntity
  8
0
 62
    18
420
        0
370
    25
100
AcDbPolyline
 90
       13
 70
     0
 43
0.0
 10
397.1248248001027
 20
44.12814121641345
 10
397.3070401158229
 20
44.21683786834618
 10
397.469509574722
 20
44.37899457760123
 10
397.5946270899569
 20
44.59703914861113
 10
397.6688342373518
 20
44.84734306879551
 10
397.6840895210451
 20
45.10278202453802
 10
397.6387397943375
 20
45.33567524143953
 10
397.537699403792
 20
45.52078512573852
 10
397.3919176435271
 20
45.6380521491955
 10
397.2171922293048
 20
45.67476861023291
 10
397.0324573709007
 20
45.62695571058352
 10
396.8577319566777
 20
45.49979471981762
 10
396.7481271957255
 20
45.36544604918766
  0
LWPOLYLINE
  5
323
330
70
100
AcDbEntity
  8
0
 62
    18
420
        0
370
    25
100
AcDbPolyline
 90
        6
 70
     0
 43
0.0
 10
396.5670631851429
 20
44.66586843294094
 10
396.5808153628537
 20
44.56574306264445
 10
396.6550225102486
 20
44.35385158851713
 10
396.7801400254828
 20
44.20057260914451
 10
396.9426094843826
 20
44.12251628031053
 10
397.1248248001027
 20
44.12814121641345
  0
LWPOLYLINE
  5
324
330
70
100
AcDbEntity
  8
0
 62
    18
420
        0
370
    25
100
AcDbPolyline
 90
       11
 70
     0
 43
0.0
 10
396.8356242387904
 20
44.1629246599793
 10
396.8453968908752
 20
44.16310484396101
 10
397.0301317492801
 20
44.2109177436104
 10
397.2048571635023
 20
44.3380787343763
 10
397.3506389237672
 20
44.53080794980353
 10
397.4516793143127
 20
44.76822018889815
 10
397.4970290410196
 20
45.02458815172384
 10
397.4817737573269
 20
45.27213039154947
 10
397.4075666099314
 20
45.48402186567744
 10
397.2824490946972
 20
45.63730084504941
 10
397.2269648813858
 20
45.6749487942159
  0
LWPOLYLINE
  5
325
330
70
100
AcDbEntity
  8
0
 62
    18
420
        0
370
    25
100
AcDbPolyline
 90
       13
 70
     0
 43
0.0
 10
400.2300287685192
 20
51.32006133632746
 10
400.4122440842393
 20
51.40875798826019
 10
400.5747135431391
 20
51.57091469751525
 10
400.6998310583734
 20
51.78895926852514
 10
400.7740382057683
 20
52.03926318870951
 10
400.7892934894615
 20
52.29470214445203
 10
400.743943762754
 20
52.52759536135354
 10
400.6429033722085
 20
52.71270524565252
 10
400.4971216119436
 20
52.82997226910952
 10
400.3223961977213
 20
52.86668873014693
 10
400.1376613393171
 20
52.81887583049753
 10
399.9629359250949
 20
52.69171483973163
 10
399.853331163363
 20
52.557366167937
  0
LWPOLYLINE
  5
326
330
70
100
AcDbEntity
  8
0
 62
    18
420
        0
370
    25
100
AcDbPolyline
 90
        6
 70
     0
 43
0.0
 10
399.6722671534375
 20
51.85778855432059
 10
399.6860193312702
 20
51.75766318255845
 10
399.7602264786651
 20
51.54577170843114
 10
399.8853439938993
 20
51.39249272905852
 10
400.0478134527991
 20
51.31443640022518
 10
400.2300287685192
 20
51.32006133632746
  0
LINE
  5
327
330
70
100
AcDbEntity
  8
0
 62
    18
420
        0
370
    25
100
AcDbLine
 10
402.3651286306676
 20
50.462822559109
 30
0.0
 11
402.3651286306676
 21
55.59129697001996
 31
0.0
  0
SPLINE
  5
328
330
70
100
AcDbEntity
  8
0
 62
    18
420
        0
370
    25
100
AcDbSpline
210
0.0
220
0.0
230
1.0
 70
     8
 71
     3
 72
     8
 73
     4
 74
     0
 42
0.0000000001
 43
0.0000000001
 40
0.0
 40
0.0
 40
0.0
 40
0.0
 40
1.0
 40
1.0
 40
1.0
 40
1.0
 10
402.3651286306676
 20
50.462822559109
 30
0.0
 10
403.4665826923332
 20
50.15032389525277
 30
0.0
 10
404.6345289322134
 20
50.16008049313902
 30
0.0
 10
405.7306086426135
 20
50.49093655446957
 30
0.0
  0
LWPOLYLINE
  5
329
330
70
100
AcDbEntity
  8
0
 62
    18
420
        0
370
    25
100
AcDbPolyline
 90
       13
 70
     0
 43
0.0
 10
397.1248248001027
 20
37.73990702245367
 10
397.3070401158222
 20
37.8286036743864
 10
397.469509574722
 20
37.99076038364145
 10
397.5946270899569
 20
38.2088049546507
 10
397.6688342373518
 20
38.45910887483573
 10
397.6840895210451
 20
38.71454783057824
 10
397.6387397943375
 20
38.94744104747975
 10
397.537699403792
 20
39.13255093177873
 10
397.3919176435271
 20
39.24981795523573
 10
397.2171922293048
 20
39.28653441627314
 10
397.0324573709
 20
39.23872151662374
 10
396.8577319566777
 20
39.11156052585784
 10
396.7481271971333
 20
38.97721185733458
  0
LWPOLYLINE
  5
32A
330
70
100
AcDbEntity
  8
0
 62
    18
420
        0
370
    25
100
AcDbPolyline
 90
        6
 70
     0
 43
0.0
 10
396.5670631853598
 20
38.27763423636432
 10
396.5808153628531
 20
38.17750886868467
 10
396.6550225102486
 20
37.9656173945567
 10
396.7801400254828
 20
37.81233841518473
 10
396.9426094843826
 20
37.73428208635074
 10
397.1248248001027
 20
37.73990702245367
  0
LWPOLYLINE
  5
32B
330
70
100
AcDbEntity
  8
0
 62
    18
420
        0
370
    25
100
AcDbPolyline
 90
       11
 70
     0
 43
0.0
 10
399.9408282072082
 20
51.35484477989331
 10
399.9506008592917
 20
51.35502496387502
 10
400.1353357176965
 20
51.40283786352441
 10
400.3100611319188
 20
51.52999885429031
 10
400.4558428921836
 20
51.72272806971754
 10
400.5568832827291
 20
51.96014030881215
 10
400.6022330094366
 20
52.21650827163784
 10
400.5869777257434
 20
52.46405051146412
 10
400.5127705783479
 20
52.67594198559145
 10
400.3876530631137
 20
52.82922096496342
 10
400.3321688498029
 20
52.86686891412927
  0
LWPOLYLINE
  5
32C
330
70
100
AcDbEntity
  8
0
 62
    18
420
        0
370
    25
100
AcDbPolyline
 90
       11
 70
     0
 43
0.0
 10
396.8356242387923
 20
37.77469046601952
 10
396.8453968908752
 20
37.77487065000122
 10
397.0301317492801
 20
37.82268354965062
 10
397.2048571635023
 20
37.94984454041652
 10
397.3506389237672
 20
38.14257375584375
 10
397.4516793143127
 20
38.37998599493836
 10
397.4970290410196
 20
38.63635395776405
 10
397.4817737573269
 20
38.88389619758969
 10
397.4075666099314
 20
39.09578767171701
 10
397.2824490946972
 20
39.24906665108962
 10
397.2269648813864
 20
39.28671460025548
  0
LWPOLYLINE
  5
32D
330
70
100
AcDbEntity
  8
0
 62
    18
420
        0
370
    25
100
AcDbPolyline
 90
       10
 70
     0
 43
0.0
 10
395.815401439927
 20
32.77053964484041
 10
395.8458655354101
 20
32.19657440259767
 10
395.936637660728
 20
31.65006281371409
 10
396.0858699571734
 20
31.1421302781289
 10
396.290524485541
 20
30.68311683751169
 10
396.5464350698088
 20
30.28236668182717
 10
396.848392108466
 20
29.94803792857734
 10
397.190248626978
 20
29.68693654705309
 10
397.5650454124601
 20
29.50437780842923
 10
397.7478130579754
 20
29.44750271848827
  0
SPLINE
  5
32E
330
70
100
AcDbEntity
  8
0
 62
    18
420
        0
370
    25
100
AcDbSpline
210
0.0
220
0.0
230
1.0
 70
     8
 71
     3
 72
     8
 73
     4
 74
     0
 42
0.0000000001
 43
0.0000000001
 40
0.0
 40
0.0
 40
0.0
 40
0.0
 40
1.0
 40
1.0
 40
1.0
 40
1.0
 10
402.3651286306676
 20
40.25059137664427
 30
0.0
 10
403.4665826923332
 20
39.93809271278868
 30
0.0
 10
404.6345289322134
 20
39.94784931067492
 30
0.0
 10
405.7306086426135
 20
40.27870537200548
 30
0.0
  0
LINE
  5
32F
330
70
100
AcDbEntity
  8
0
 62
    18
420
        0
370
    25
100
AcDbLine
 10
402.3651286306676
 20
40.25059137664491
 30
0.0
 11
402.3651286306676
 21
45.37906578755586
 31
0.0
  0
SPLINE
  5
330
330
70
100
AcDbEntity
  8
0
 62
    18
420
        0
370
    25
100
AcDbSpline
210
0.0
220
0.0
230
1.0
 70
     8
 71
     3
 72
     8
 73
     4
 74
     0
 42
0.0000000001
 43
0.0000000001
 40
0.0
 40
0.0
 40
0.0
 40
0.0
 40
1.0
 40
1.0
 40
1.0
 40
1.0
 10
402.3651286306676
 20
45.37906578755586
 30
0.0
 10
403.4665826923332
 20
45.06656712369962
 30
0.0
 10
404.6345289322134
 20
45.07632372158587
 30
0.0
 10
405.7306086426135
 20
45.40717978291642
 30
0.0
  0
LWPOLYLINE
  5
331
330
70
100
AcDbEntity
  8
0
 62
    18
420
        0
370
    25
100
AcDbPolyline
 90
       13
 70
     0
 43
0.0
 10
400.2300287685192
 20
32.1553587544481
 10
400.4122440842393
 20
32.2440554063802
 10
400.5747135431391
 20
32.40621211563589
 10
400.6998310583734
 20
32.62425668664514
 10
400.7740382057683
 20
32.87456060682953
 10
400.7892934894615
 20
33.12999956257204
 10
400.743943762754
 20
33.36289277947355
 10
400.6429033722085
 20
33.54800266377253
 10
400.4971216119436
 20
33.66526968722953
 10
400.3223961977213
 20
33.70198614826757
 10
400.1376613393171
 20
33.65417324861753
 10
399.9629359250949
 20
33.52701225785164
 10
399.8533311598471
 20
33.39266358079763
  0
LWPOLYLINE
  5
332
330
70
100
AcDbEntity
  8
0
 62
    18
420
        0
370
    25
100
AcDbPolyline
 90
        6
 70
     0
 43
0.0
 10
399.6722671528953
 20
32.69308597898593
 10
399.6860193312702
 20
32.59296060067846
 10
399.7602264786651
 20
32.38106912655114
 10
399.8853439938993
 20
32.22779014717853
 10
400.0478134527991
 20
32.14973381834518
 10
400.2300287685192
 20
32.1553587544481
  0
LINE
  5
333
330
70
100
AcDbEntity
  8
0
 62
    18
420
        0
370
    25
100
AcDbLine
 10
402.3651286306676
 20
30.03836019418017
 30
0.0
 11
402.3651286306676
 21
35.16683460509112
 31
0.0
  0
SPLINE
  5
334
330
70
100
AcDbEntity
  8
0
 62
    18
420
        0
370
    25
100
AcDbSpline
210
0.0
220
0.0
230
1.0
 70
     8
 71
     3
 72
     8
 73
     4
 74
     0
 42
0.0000000001
 43
0.0000000001
 40
0.0
 40
0.0
 40
0.0
 40
0.0
 40
1.0
 40
1.0
 40
1.0
 40
1.0
 10
402.3651286306676
 20
35.16683460509112
 30
0.0
 10
403.4665826923332
 20
34.85433594123553
 30
0.0
 10
404.6345289322134
 20
34.86409253912114
 30
0.0
 10
405.7306086426135
 20
35.19494860045233
 30
0.0
  0
SPLINE
  5
335
330
70
100
AcDbEntity
  8
0
 62
    18
420
        0
370
    25
100
AcDbSpline
210
0.0
220
0.0
230
1.0
 70
     8
 71
     3
 72
     8
 73
     4
 74
     0
 42
0.0000000001
 43
0.0000000001
 40
0.0
 40
0.0
 40
0.0
 40
0.0
 40
1.0
 40
1.0
 40
1.0
 40
1.0
 10
402.3651286306676
 20
30.03836019418017
 30
0.0
 10
403.4665826923332
 20
29.72586153032457
 30
0.0
 10
404.6345289322134
 20
29.73561812821019
 30
0.0
 10
405.7306086426141
 20
30.06647418954074
 30
0.0
  0
LWPOLYLINE
  5
336
330
70
100
AcDbEntity
  8
0
 62
    18
420
        0
370
    25
100
AcDbPolyline
 90
       11
 70
     0
 43
0.0
 10
399.9408282161682
 20
32.19014219806722
 10
399.9506008592917
 20
32.19032238199502
 10
400.1353357176965
 20
32.23813528164506
 10
400.3100611319188
 20
32.36529627241096
 10
400.4558428921836
 20
32.55802548783754
 10
400.5568832827291
 20
32.79543772693216
 10
400.6022330094366
 20
33.05180568975785
 10
400.5869777257434
 20
33.29934792958413
 10
400.5127705783485
 20
33.51123940371145
 10
400.3876530631137
 20
33.66451838308406
 10
400.3321688570297
 20
33.70216632818348
  0
LINE
  5
337
330
70
100
AcDbEntity
  8
0
 62
    18
420
        0
370
    25
100
AcDbLine
 10
405.7306086426135
 20
30.06647418954074
 30
0.0
 11
408.6477503696487
 21
29.31146235332122
 31
0.0
  0
LINE
  5
338
330
70
100
AcDbEntity
  8
0
 62
    18
420
        0
370
    25
100
AcDbLine
 10
408.6477503696487
 20
54.864399129161
 30
0.0
 11
405.7210788862508
 21
55.62187744782294
 31
0.0
  0
LWPOLYLINE
  5
339
330
70
100
AcDbEntity
  8
0
 62
    18
420
        0
370
    25
100
AcDbPolyline
 90
       12
 70
     0
 43
0.0
 10
408.6477503696487
 20
54.864399129161
 10
409.0736940810421
 20
54.71254205617671
 10
409.4909668067917
 20
54.48054689861196
 10
409.8910740775167
 20
54.17313640885479
 10
410.2658708629994
 20
53.79656857797839
 10
410.6077273815108
 20
53.35850924108786
 10
410.9096844201681
 20
52.8678760230237
 10
411.1655950044364
 20
52.33465680123505
 10
411.370249532804
 20
51.76970638140171
 10
411.5194818292494
 20
51.184525524888
 10
411.6102539545668
 20
50.5910268264108
 10
411.6407180500504
 20
50.00129220796223
  0
LINE
  5
33A
330
70
100
AcDbEntity
  8
0
 62
    18
420
        0
370
    25
100
AcDbLine
 10
411.6407180500504
 20
50.00129220796223
 30
0.0
 11
411.6407180500504
 21
32.62529520039131
 31
0.0
  0
LWPOLYLINE
  5
33B
330
70
100
AcDbEntity
  8
0
 62
    18
420
        0
370
    25
100
AcDbPolyline
 90
       12
 70
     0
 43
0.0
 10
411.6407180500504
 20
32.62529520039131
 10
411.6102539545668
 20
32.05132995814857
 10
411.5194818292494
 20
31.50481836926434
 10
411.370249532804
 20
30.9968858336798
 10
411.1655950044358
 20
30.53787239306194
 10
410.9096844201681
 20
30.13712223737743
 10
410.6077273815108
 20
29.80279348412759
 10
410.2658708629994
 20
29.54169210260399
 10
409.8910740775167
 20
29.35913336397949
 10
409.4909668067917
 20
29.25883363771784
 10
409.0736940810421
 20
29.24283473700433
 10
408.6477503696487
 20
29.31146235332122
  0
LWPOLYLINE
  5
33C
330
70
100
AcDbEntity
  8
0
 62
    18
420
        0
370
    25
100
AcDbPolyline
 90
       25
 70
     0
 43
0.0
 10
407.413151201483
 20
34.10276406688199
 10
407.6552252755659
 20
33.99657592585778
 10
407.8808024015457
 20
33.81055481050733
 10
408.0745098710718
 20
33.55737775242834
 10
408.2231468402121
 20
33.25429834973313
 10
408.3165839451541
 20
32.9219709628532
 10
408.3484536016085
 20
32.5830431540079
 10
408.3165839451541
 20
32.26061229326441
 10
408.2231468402121
 20
31.97665151094131
 10
408.0745098710718
 20
31.75051226508559
 10
407.8808024015457
 20
31.59760557159009
 10
407.6552252755659
 20
31.52835176892624
 10
407.413151201483
 20
31.54747038929833
 10
407.1710771274007
 20
31.65365853032255
 10
406.9455000014203
 20
31.83967964567299
 10
406.7517925318942
 20
32.09285670375199
 10
406.6031555627539
 20
32.39593610644719
 10
406.509718457812
 20
32.72826349332713
 10
406.4778488013576
 20
33.06719130217242
 10
406.509718457812
 20
33.38962216291591
 10
406.6031555627539
 20
33.67358294523902
 10
406.7517925318942
 20
33.89972219109474
 10
406.9455000014203
 20
34.05262888459024
 10
407.1710771274007
 20
34.12188268725409
 10
407.413151201483
 20
34.10276406688199
  0
LWPOLYLINE
  5
33D
330
70
100
AcDbEntity
  8
0
 62
    18
420
        0
370
    25
100
AcDbPolyline
 90
       25
 70
     0
 43
0.0
 10
410.5183551698996
 20
39.68731233488755
 10
410.7604292439824
 20
39.58112419386334
 10
410.9860063699622
 20
39.39510307851355
 10
411.1797138394884
 20
39.1419260204339
 10
411.3283508086293
 20
38.83884661773869
 10
411.4217879135712
 20
38.50651923085877
 10
411.4536575700249
 20
38.16759142201346
 10
411.4217879135712
 20
37.84516056126997
 10
411.3283508086293
 20
37.56119977894687
 10
411.1797138394884
 20
37.33506053309115
 10
410.9860063699622
 20
37.18215383959564
 10
410.7604292439824
 20
37.1129000369318
 10
410.5183551698996
 20
37.1320186573039
 10
410.2762810958172
 20
37.23820679832811
 10
410.0507039698368
 20
37.42422791367855
 10
409.8569965003107
 20
37.67740497175755
 10
409.7083595311704
 20
37.98048437445275
 10
409.6149224262285
 20
38.31281176133268
 10
409.5830527697741
 20
38.65173957017864
 10
409.6149224262285
 20
38.97417043092147
 10
409.7083595311704
 20
39.25813121324522
 10
409.8569965003107
 20
39.4842704591003
 10
410.0507039698368
 20
39.6371771525958
 10
410.2762810958172
 20
39.70643095525965
 10
410.5183551698996
 20
39.68731233488755
  0
LWPOLYLINE
  5
33E
330
70
100
AcDbEntity
  8
0
 62
    18
420
        0
370
    25
100
AcDbPolyline
 90
       25
 70
     0
 43
0.0
 10
410.5183551698996
 20
46.07554652884798
 10
410.7604292439824
 20
45.96935838782313
 10
410.9860063699622
 20
45.78333727247332
 10
411.1797138394884
 20
45.53016021439368
 10
411.3283508086293
 20
45.22708081169848
 10
411.4217879135712
 20
44.89475342481854
 10
411.4536575700249
 20
44.55582561597324
 10
411.4217879135712
 20
44.23339475522976
 10
411.3283508086293
 20
43.94943397290665
 10
411.1797138394884
 20
43.72329472705093
 10
410.9860063699622
 20
43.57038803355543
 10
410.7604292439824
 20
43.50113423089158
 10
410.5183551698996
 20
43.52025285126368
 10
410.2762810958172
 20
43.62644099228789
 10
410.0507039698368
 20
43.81246210763833
 10
409.8569965003107
 20
44.06563916571797
 10
409.7083595311704
 20
44.36871856841317
 10
409.6149224262285
 20
44.70104595529247
 10
409.5830527697741
 20
45.03997376413841
 10
409.6149224262285
 20
45.36240462488126
 10
409.7083595311704
 20
45.64636540720501
 10
409.8569965003107
 20
45.87250465306008
 10
410.0507039698368
 20
46.02541134655559
 10
410.2762810958172
 20
46.09466514921943
 10
410.5183551698996
 20
46.07554652884798
  0
LWPOLYLINE
  5
33F
330
70
100
AcDbEntity
  8
0
 62
    18
420
        0
370
    25
100
AcDbPolyline
 90
       25
 70
     0
 43
0.0
 10
407.413151201483
 20
53.26746664876199
 10
407.6552252755659
 20
53.16127850773778
 10
407.8808024015457
 20
52.97525739238733
 10
408.0745098710718
 20
52.72208033430769
 10
408.2231468402121
 20
52.41900093161249
 10
408.3165839451547
 20
52.08667354473256
 10
408.3484536016085
 20
51.74774573588726
 10
408.3165839451547
 20
51.42531487514377
 10
408.2231468402121
 20
51.14135409282067
 10
408.0745098710718
 20
50.91521484696494
 10
407.8808024015457
 20
50.76230815347008
 10
407.6552252755659
 20
50.69305435080623
 10
407.413151201483
 20
50.71217297117769
 10
407.1710771274007
 20
50.8183611122019
 10
406.9455000014203
 20
51.00438222755235
 10
406.7517925318942
 20
51.25755928563198
 10
406.6031555627539
 20
51.56063868832719
 10
406.509718457812
 20
51.89296607520712
 10
406.4778488013576
 20
52.23189388405242
 10
406.509718457812
 20
52.55432474479591
 10
406.6031555627539
 20
52.83828552711902
 10
406.7517925318942
 20
53.06442477297474
 10
406.9455000014203
 20
53.2173314664696
 10
407.1710771274007
 20
53.28658526913344
 10
407.413151201483
 20
53.26746664876199
  0
LINE
  5
340
330
70
100
AcDbEntity
  8
0
 62
    18
420
        0
370
    25
100
AcDbLine
 10
409.2089318097237
 20
55.0096435736101
 30
0.0
 11
408.6477503696487
 21
54.864399129161
 31
0.0
  0
LWPOLYLINE
  5
341
330
70
100
AcDbEntity
  8
0
 62
    18
420
        0
370
    25
100
AcDbPolyline
 90
       12
 70
     0
 43
0.0
 10
412.2018994901256
 20
50.14653665241198
 10
412.1714353946419
 20
50.73627127086055
 10
412.0806632693246
 20
51.32976996933773
 10
411.9314309728792
 20
51.91495082585145
 10
411.7267764445116
 20
52.4799012456848
 10
411.4708658602438
 20
53.0131204674728
 10
411.1689088215865
 20
53.50375368553761
 10
410.8270523030745
 20
53.94181302242813
 10
410.4522555175925
 20
54.31838085330454
 10
410.0521482468676
 20
54.62579134306107
 10
409.6348755211179
 20
54.85778650062645
 10
409.2089318097237
 20
55.0096435736101
  0
LINE
  5
342
330
70
100
AcDbEntity
  8
0
 62
    18
420
        0
370
    25
100
AcDbLine
 10
411.6407180500504
 20
50.00129220796223
 30
0.0
 11
412.2018994901256
 21
50.14653665241198
 31
0.0
  0
LINE
  5
343
330
70
100
AcDbEntity
  8
0
 62
    18
420
        0
370
    25
100
AcDbLine
 10
412.2018994901256
 20
32.77053964484041
 30
0.0
 11
411.6407180500504
 21
32.62529520039131
 31
0.0
  0
LINE
  5
344
330
70
100
AcDbEntity
  8
0
 62
    18
420
        0
370
    25
100
AcDbLine
 10
412.2018994901256
 20
50.14653665241198
 30
0.0
 11
412.2018994901256
 21
32.77053964484041
 31
0.0
  0
LWPOLYLINE
  5
345
330
70
100
AcDbEntity
  8
0
 62
    18
420
        0
370
    25
100
AcDbPolyline
 90
       15
 70
     0
 43
0.0
 10
410.8924761299499
 20
45.6613174229639
 10
410.7102608142303
 20
45.66694235906681
 10
410.5477913553306
 20
45.58888603023283
 10
410.4226738400956
 20
45.43560705086085
 10
410.3484666927007
 20
45.22371557673353
 10
410.3332114090076
 20
44.97617333690725
 10
410.378561135715
 20
44.71980537408156
 10
410.4796015262605
 20
44.48239313498695
 10
410.6253832865254
 20
44.28966391955972
 10
410.8001087007478
 20
44.16250292879381
 10
410.9848435591526
 20
44.11469002914443
 10
411.1595689733749
 20
44.15140649018247
 10
411.3053507336391
 20
44.26867351363882
 10
411.4063911241847
 20
44.4537833979378
 10
411.4502377443912
 20
44.66586842668759
  0
SPLINE
  5
346
330
70
100
AcDbEntity
  8
0
 62
    18
420
        0
370
    25
100
AcDbSpline
210
0.0
220
0.0
230
1.0
 70
     8
 71
     3
 72
     8
 73
     4
 74
     0
 42
0.0000000001
 43
0.0000000001
 40
0.0
 40
0.0
 40
0.0
 40
0.0
 40
1.0
 40
1.0
 40
1.0
 40
1.0
 10
411.2691737310166
 20
45.36544605414094
 30
0.0
 10
411.1814899654398
 20
45.50456411113954
 30
0.0
 10
411.0484079011522
 20
45.60909138292212
 30
0.0
 10
410.8924761299499
 20
45.6613174229639
 30
0.0
  0
LINE
  5
347
330
70
100
AcDbEntity
  8
0
 62
    18
420
        0
370
    25
100
AcDbLine
 10
406.2720822733298
 20
55.76975616622934
 30
0.0
 11
405.7585999233185
 21
55.63685715472294
 31
0.0
  0
LINE
  5
348
330
70
100
AcDbEntity
  8
0
 62
    18
420
        0
370
    25
100
AcDbLine
 10
406.2720822733298
 20
55.76975616622934
 30
0.0
 11
409.2089318097237
 21
55.0096435736101
 31
0.0
  0
LINE
  5
349
330
70
100
AcDbEntity
  8
0
 62
    18
420
        0
370
    25
100
AcDbLine
 10
411.0795366099753
 20
44.17655603123002
 30
0.0
 11
411.1816766912609
 21
44.1629246599793
 31
0.0
  0
SPLINE
  5
34A
330
70
100
AcDbEntity
  8
0
 62
    18
420
        0
370
    25
100
AcDbSpline
210
0.0
220
0.0
230
1.0
 70
     8
 71
     3
 72
    11
 73
     7
 74
     0
 42
0.0000000001
 43
0.0000000001
 40
0.0
 40
0.0
 40
0.0
 40
0.0
 40
1.0
 40
1.0
 40
1.0
 40
2.0
 40
2.0
 40
2.0
 40
2.0
 10
410.7903360486655
 20
45.67494879421526
 30
0.0
 10
410.427590345361
 20
45.33072487182609
 30
0.0
 10
410.4125754752621
 20
44.75761275361825
 30
0.0
 10
410.7567993976506
 20
44.39486705031375
 30
0.0
 10
410.8472609374492
 20
44.29953801377023
 30
0.0
 10
410.9573894920869
 20
44.22504311180403
 30
0.0
 10
411.0795366099753
 20
44.17655603123002
 30
0.0
  0
LWPOLYLINE
  5
34B
330
70
100
AcDbEntity
  8
0
 62
    18
420
        0
370
    25
100
AcDbPolyline
 90
       15
 70
     0
 43
0.0
 10
407.7872721615333
 20
52.85323754287791
 10
407.6050568458131
 20
52.85886247898083
 10
407.4425873869134
 20
52.78080615014683
 10
407.3174698716791
 20
52.62752717077487
 10
407.2432627242843
 20
52.41563569664754
 10
407.228007440591
 20
52.16809345682126
 10
407.2733571672985
 20
51.91172549399557
 10
407.374397557844
 20
51.67431325490095
 10
407.5201793181089
 20
51.48158403947437
 10
407.6949047323313
 20
51.35442304870783
 10
407.8796395907354
 20
51.30661014905843
 10
408.0543650049584
 20
51.34332661009648
 10
408.2001467652226
 20
51.46059363355283
 10
408.3011871557681
 20
51.64570351785181
 10
408.3450337765759
 20
51.85778855385471
  0
SPLINE
  5
34C
330
70
100
AcDbEntity
  8
0
 62
    18
420
        0
370
    25
100
AcDbSpline
210
0.0
220
0.0
230
1.0
 70
     8
 71
     3
 72
     8
 73
     4
 74
     0
 42
0.0000000001
 43
0.0000000001
 40
0.0
 40
0.0
 40
0.0
 40
0.0
 40
1.0
 40
1.0
 40
1.0
 40
1.0
 10
408.1639697664471
 20
52.55736616829955
 30
0.0
 10
408.0762860007612
 20
52.69648422802729
 30
0.0
 10
407.9432039349444
 20
52.80101150197626
 30
0.0
 10
407.7872721615333
 20
52.85323754287791
 30
0.0
  0
LWPOLYLINE
  5
34D
330
70
100
AcDbEntity
  8
0
 62
    18
420
        0
370
    25
100
AcDbPolyline
 90
       15
 70
     0
 43
0.0
 10
410.8924761299499
 20
39.27308322900412
 10
410.7102608142303
 20
39.27870816510703
 10
410.5477913553306
 20
39.20065183627304
 10
410.4226738400956
 20
39.04737285690107
 10
410.3484666927007
 20
38.83548138277311
 10
410.3332114090076
 20
38.58793914294747
 10
410.378561135715
 20
38.33157118012179
 10
410.4796015262605
 20
38.09415894102717
 10
410.6253832865254
 20
37.90142972559993
 10
410.8001087007478
 20
37.77426873483404
 10
410.9848435591519
 20
37.72645583518464
 10
411.1595689733749
 20
37.76317229622204
 10
411.3053507336391
 20
37.88043931967904
 10
411.4063911241847
 20
38.06554920397802
 10
411.4502377456092
 20
38.2776342474118
  0
SPLINE
  5
34E
330
70
100
AcDbEntity
  8
0
 62
    18
420
        0
370
    25
100
AcDbSpline
210
0.0
220
0.0
230
1.0
 70
     8
 71
     3
 72
     8
 73
     4
 74
     0
 42
0.0000000001
 43
0.0000000001
 40
0.0
 40
0.0
 40
0.0
 40
0.0
 40
1.0
 40
1.0
 40
1.0
 40
1.0
 10
411.2691737388267
 20
38.97721184849775
 30
0.0
 10
411.1814899730273
 20
39.11632991103612
 30
0.0
 10
411.0484079056357
 20
39.22085718721692
 30
0.0
 10
410.8924761299499
 20
39.27308322900412
 30
0.0
  0
LINE
  5
34F
330
70
100
AcDbEntity
  8
0
 62
    18
420
        0
370
    25
100
AcDbLine
 10
407.9743326415588
 20
51.36847615114404
 30
0.0
 11
408.0764727228431
 21
51.35484477989331
 31
0.0
  0
SPLINE
  5
350
330
70
100
AcDbEntity
  8
0
 62
    18
420
        0
370
    25
100
AcDbSpline
210
0.0
220
0.0
230
1.0
 70
     8
 71
     3
 72
    11
 73
     7
 74
     0
 42
0.0000000001
 43
0.0000000001
 40
0.0
 40
0.0
 40
0.0
 40
0.0
 40
1.0
 40
1.0
 40
1.0
 40
2.0
 40
2.0
 40
2.0
 40
2.0
 10
407.6851320802483
 20
52.86686891412863
 30
0.0
 10
407.3223863769438
 20
52.52264499173946
 30
0.0
 10
407.3073715068455
 20
51.94953287353098
 30
0.0
 10
407.6515954292347
 20
51.58678717022648
 30
0.0
 10
407.7420569690334
 20
51.49145813368424
 30
0.0
 10
407.8521855236703
 20
51.41696323171803
 30
0.0
 10
407.9743326415588
 20
51.36847615114404
 30
0.0
  0
LINE
  5
351
330
70
100
AcDbEntity
  8
0
 62
    18
420
        0
370
    25
100
AcDbLine
 10
411.0795366099753
 20
37.78832183727025
 30
0.0
 11
411.1816766912628
 21
37.77469046601952
 31
0.0
  0
SPLINE
  5
352
330
70
100
AcDbEntity
  8
0
 62
    18
420
        0
370
    25
100
AcDbSpline
210
0.0
220
0.0
230
1.0
 70
     8
 71
     3
 72
    11
 73
     7
 74
     0
 42
0.0000000001
 43
0.0000000001
 40
0.0
 40
0.0
 40
0.0
 40
0.0
 40
1.0
 40
1.0
 40
1.0
 40
2.0
 40
2.0
 40
2.0
 40
2.0
 10
410.7903360486674
 20
39.28671460025612
 30
0.0
 10
410.4275903453617
 20
38.94249067786887
 30
0.0
 10
410.4125754752608
 20
38.36937855966168
 30
0.0
 10
410.7567993976481
 20
38.00663285635589
 30
0.0
 10
410.8472609374474
 20
37.91130381981173
 30
0.0
 10
410.9573894920855
 20
37.83680891784424
 30
0.0
 10
411.0795366099753
 20
37.78832183727025
 30
0.0
  0
SPLINE
  5
353
330
70
100
AcDbEntity
  8
0
 62
    18
420
        0
370
    25
100
AcDbSpline
210
0.0
220
0.0
230
1.0
 70
     8
 71
     3
 72
     8
 73
     4
 74
     0
 42
0.0000000001
 43
0.0000000001
 40
0.0
 40
0.0
 40
0.0
 40
0.0
 40
1.0
 40
1.0
 40
1.0
 40
1.0
 10
402.286692287439
 20
50.49093655446957
 30
0.0
 10
403.3827719978398
 20
50.16008049313902
 30
0.0
 10
404.5507182377199
 20
50.15032389525341
 30
0.0
 10
405.652172299385
 20
50.462822559109
 30
0.0
  0
LINE
  5
354
330
70
100
AcDbEntity
  8
0
 62
    18
420
        0
370
    25
100
AcDbLine
 10
405.652172299385
 20
50.462822559109
 30
0.0
 11
405.652172299385
 21
45.37906578755586
 31
0.0
  0
SPLINE
  5
355
330
70
100
AcDbEntity
  8
0
 62
    18
420
        0
370
    25
100
AcDbSpline
210
0.0
220
0.0
230
1.0
 70
     8
 71
     3
 72
     8
 73
     4
 74
     0
 42
0.0000000001
 43
0.0000000001
 40
0.0
 40
0.0
 40
0.0
 40
0.0
 40
1.0
 40
1.0
 40
1.0
 40
1.0
 10
402.286692287439
 20
45.40717978291642
 30
0.0
 10
403.3827719978398
 20
45.07632372158587
 30
0.0
 10
404.5507182377199
 20
45.06656712369962
 30
0.0
 10
405.652172299385
 20
45.37906578755586
 30
0.0
  0
LWPOLYLINE
  5
356
330
70
100
AcDbEntity
  8
0
 62
    18
420
        0
370
    25
100
AcDbPolyline
 90
       10
 70
     0
 43
0.0
 10
410.2694878720772
 20
29.44750271848827
 10
410.4522555175925
 20
29.50437780842923
 10
410.8270523030745
 20
29.68693654705309
 10
411.1689088215865
 20
29.94803792857734
 10
411.4708658602432
 20
30.28236668182717
 10
411.7267764445109
 20
30.68311683751169
 10
411.9314309728792
 20
31.14213027812954
 10
412.0806632693246
 20
31.65006281371409
 10
412.1714353946419
 20
32.19657440259767
 10
412.2018994901256
 20
32.77053964484041
  0
SPLINE
  5
357
330
70
100
AcDbEntity
  8
0
 62
    18
420
        0
370
    25
100
AcDbSpline
210
0.0
220
0.0
230
1.0
 70
     8
 71
     3
 72
     8
 73
     4
 74
     0
 42
0.0000000001
 43
0.0000000001
 40
0.0
 40
0.0
 40
0.0
 40
0.0
 40
1.0
 40
1.0
 40
1.0
 40
1.0
 10
402.286692287439
 20
40.27870537200548
 30
0.0
 10
403.3827719978398
 20
39.94784931067492
 30
0.0
 10
404.5507182377199
 20
39.93809271278868
 30
0.0
 10
405.652172299385
 20
40.25059137664491
 30
0.0
  0
LINE
  5
358
330
70
100
AcDbEntity
  8
0
 62
    18
420
        0
370
    25
100
AcDbLine
 10
405.652172299385
 20
40.25059137664491
 30
0.0
 11
405.652172299385
 21
35.16683460509112
 31
0.0
  0
SPLINE
  5
359
330
70
100
AcDbEntity
  8
0
 62
    18
420
        0
370
    25
100
AcDbSpline
210
0.0
220
0.0
230
1.0
 70
     8
 71
     3
 72
     8
 73
     4
 74
     0
 42
0.0000000001
 43
0.0000000001
 40
0.0
 40
0.0
 40
0.0
 40
0.0
 40
1.0
 40
1.0
 40
1.0
 40
1.0
 10
402.286692287439
 20
35.19494860045233
 30
0.0
 10
403.3827719978398
 20
34.86409253912114
 30
0.0
 10
404.5507182377199
 20
34.85433594123553
 30
0.0
 10
405.652172299385
 20
35.16683460509112
 30
0.0
  0
LWPOLYLINE
  5
35A
330
70
100
AcDbEntity
  8
0
 62
    18
420
        0
370
    25
100
AcDbPolyline
 90
       15
 70
     0
 43
0.0
 10
407.7872721615333
 20
33.68853496099855
 10
407.6050568458131
 20
33.69415989710083
 10
407.4425873869134
 20
33.61610356826748
 10
407.3174698716791
 20
33.46282458889487
 10
407.2432627242843
 20
33.25093311476755
 10
407.228007440591
 20
33.00339087494192
 10
407.2733571672985
 20
32.74702291211558
 10
407.374397557844
 20
32.5096106730216
 10
407.5201793181089
 20
32.31688145759438
 10
407.6949047323313
 20
32.18972046682848
 10
407.8796395907354
 20
32.14190756717908
 10
408.0543650049577
 20
32.17862402821648
 10
408.2001467652226
 20
32.29589105167348
 10
408.3011871557681
 20
32.48100093597246
 10
408.3450337765361
 20
32.69308597149217
  0
SPLINE
  5
35B
330
70
100
AcDbEntity
  8
0
 62
    18
420
        0
370
    25
100
AcDbSpline
210
0.0
220
0.0
230
1.0
 70
     8
 71
     3
 72
     8
 73
     4
 74
     0
 42
0.0000000001
 43
0.0000000001
 40
0.0
 40
0.0
 40
0.0
 40
0.0
 40
1.0
 40
1.0
 40
1.0
 40
1.0
 10
408.1639697661743
 20
33.39266358682832
 30
0.0
 10
408.0762860004956
 20
33.53178164636162
 30
0.0
 10
407.9432039347871
 20
33.63630892015787
 30
0.0
 10
407.7872721615333
 20
33.68853496099855
 30
0.0
  0
LINE
  5
35C
330
70
100
AcDbEntity
  8
0
 62
    18
420
        0
370
    25
100
AcDbLine
 10
407.9743326415582
 20
32.20377356926468
 30
0.0
 11
408.076472713885
 21
32.19014219806722
 31
0.0
  0
SPLINE
  5
35D
330
70
100
AcDbEntity
  8
0
 62
    18
420
        0
370
    25
100
AcDbSpline
210
0.0
220
0.0
230
1.0
 70
     8
 71
     3
 72
    11
 73
     7
 74
     0
 42
0.0000000001
 43
0.0000000001
 40
0.0
 40
0.0
 40
0.0
 40
0.0
 40
1.0
 40
1.0
 40
1.0
 40
2.0
 40
2.0
 40
2.0
 40
2.0
 10
407.6851320730228
 20
33.70216632818411
 30
0.0
 10
407.3223863729088
 20
33.35794240040788
 30
0.0
 10
407.307371509764
 20
32.78483028041868
 30
0.0
 10
407.6515954375402
 20
32.42208458030471
 30
0.0
 10
407.7420569757899
 20
32.32675554772496
 30
0.0
 10
407.8521855274256
 20
32.25226064861625
 30
0.0
 10
407.9743326415582
 20
32.20377356926468
 30
0.0
  0
LINE
  5
35E
330
70
100
AcDbEntity
  8
0
 62
    18
420
        0
370
    25
100
AcDbLine
 10
409.2089318097245
 20
95.76657773107475
 30
0.0
 11
408.6477503696487
 21
95.62133328662534
 31
0.0
  0
LWPOLYLINE
  5
35F
330
70
100
AcDbEntity
  8
0
 62
    18
420
        0
370
    25
100
AcDbPolyline
 90
       12
 70
     0
 43
0.0
 10
412.2018994901256
 20
90.90347080987632
 10
412.1714353946425
 20
91.49320542832489
 10
412.0806632693246
 20
92.08670412680209
 10
411.9314309728798
 20
92.67188498331579
 10
411.7267764445116
 20
93.23683540314947
 10
411.4708658602438
 20
93.77005462493746
 10
411.1689088215865
 20
94.26068784300227
 10
410.8270523030745
 20
94.69874717989279
 10
410.4522555175925
 20
95.07531501076888
 10
410.0521482468676
 20
95.38272550052573
 10
409.6348755211179
 20
95.61472065809079
 10
409.2089318097245
 20
95.76657773107475
  0
LINE
  5
360
330
70
100
AcDbEntity
  8
0
 62
    18
420
        0
370
    25
100
AcDbLine
 10
411.6407180500504
 20
90.75822636542659
 30
0.0
 11
412.2018994901256
 21
90.90347080987632
 31
0.0
  0
LWPOLYLINE
  5
361
330
70
100
AcDbEntity
  8
0
 62
    18
420
        0
370
    25
100
AcDbPolyline
 90
       12
 70
     0
 43
0.0
 10
408.6477503696487
 20
95.62133328662534
 10
409.0736940810421
 20
95.46947621364138
 10
409.4909668067924
 20
95.2374810560763
 10
409.8910740775173
 20
94.93007056631913
 10
410.2658708629994
 20
94.55350273544304
 10
410.6077273815108
 20
94.11544339855252
 10
410.9096844201687
 20
93.62481018048804
 10
411.1655950044364
 20
93.09159095869972
 10
411.370249532804
 20
92.52664053886638
 10
411.5194818292494
 20
91.94145968235266
 10
411.6102539545668
 20
91.34796098387546
 10
411.6407180500504
 20
90.75822636542659
  0
LINE
  5
362
330
70
100
AcDbEntity
  8
0
 62
    18
420
        0
370
    25
100
AcDbLine
 10
405.7306086426141
 20
70.8234083470054
 30
0.0
 11
408.6477503696487
 21
70.06839651078587
 31
0.0
  0
LINE
  5
363
330
70
100
AcDbEntity
  8
0
 62
    18
420
        0
370
    25
100
AcDbLine
 10
408.6477503696487
 20
95.62133328662534
 30
0.0
 11
405.7210788862508
 21
96.37881160528728
 31
0.0
  0
LINE
  5
364
330
70
100
AcDbEntity
  8
0
 62
    18
420
        0
370
    25
100
AcDbLine
 10
411.6407180500504
 20
90.75822636542659
 30
0.0
 11
411.6407180500504
 21
73.38222935785598
 31
0.0
  0
LWPOLYLINE
  5
365
330
70
100
AcDbEntity
  8
0
 62
    18
420
        0
370
    25
100
AcDbPolyline
 90
       12
 70
     0
 43
0.0
 10
411.6407180500504
 20
73.38222935785598
 10
411.6102539545668
 20
72.80826411561259
 10
411.5194818292494
 20
72.26175252672899
 10
411.370249532804
 20
71.75381999114446
 10
411.1655950044364
 20
71.2948065505266
 10
410.9096844201687
 20
70.89405639484208
 10
410.6077273815108
 20
70.55972764159226
 10
410.2658708629994
 20
70.298626260068
 10
409.8910740775167
 20
70.11606752144415
 10
409.4909668067917
 20
70.01576779518251
 10
409.0736940810421
 20
69.99976889446898
 10
408.6477503696487
 20
70.06839651078587
  0
LWPOLYLINE
  5
366
330
70
100
AcDbEntity
  8
0
 62
    18
420
        0
370
    25
100
AcDbPolyline
 90
       25
 70
     0
 43
0.0
 10
407.413151201483
 20
74.85969822434666
 10
407.6552252755659
 20
74.75351008332244
 10
407.8808024015457
 20
74.567488967972
 10
408.0745098710718
 20
74.31431190989299
 10
408.2231468402121
 20
74.01123250719781
 10
408.3165839451547
 20
73.67890512031786
 10
408.3484536016085
 20
73.33997731147191
 10
408.3165839451547
 20
73.01754645072907
 10
408.2231468402121
 20
72.73358566840532
 10
408.0745098710718
 20
72.50744642255025
 10
407.8808024015457
 20
72.35453972905474
 10
407.6552252755659
 20
72.2852859263909
 10
407.413151201483
 20
72.30440454676299
 10
407.1710771274007
 20
72.41059268778721
 10
406.9455000014203
 20
72.596613803137
 10
406.7517925318942
 20
72.84979086121665
 10
406.6031555627539
 20
73.15287026391185
 10
406.509718457812
 20
73.48519765079179
 10
406.4778488013576
 20
73.82412545963709
 10
406.509718457812
 20
74.14655632038058
 10
406.6031555627539
 20
74.43051710270367
 10
406.7517925318942
 20
74.65665634855941
 10
406.9455000014203
 20
74.80956304205459
 10
407.1710771274007
 20
74.87881684471843
 10
407.413151201483
 20
74.85969822434666
  0
LWPOLYLINE
  5
367
330
70
100
AcDbEntity
  8
0
 62
    18
420
        0
370
    25
100
AcDbPolyline
 90
       25
 70
     0
 43
0.0
 10
410.5183551698996
 20
80.44424649235223
 10
410.7604292439824
 20
80.33805835132801
 10
410.9860063699628
 20
80.15203723597789
 10
411.1797138394884
 20
79.89886017789856
 10
411.3283508086293
 20
79.59578077520337
 10
411.4217879135712
 20
79.26345338832343
 10
411.4536575700256
 20
78.9245255794778
 10
411.4217879135712
 20
78.60209471873464
 10
411.3283508086293
 20
78.31813393641121
 10
411.179713839489
 20
78.09199469055581
 10
410.9860063699622
 20
77.93908799706031
 10
410.7604292439824
 20
77.86983419439646
 10
410.5183551698996
 20
77.88895281476823
 10
410.2762810958172
 20
77.99514095579278
 10
410.0507039698368
 20
78.1811620711429
 10
409.8569965003107
 20
78.43433912922221
 10
409.7083595311704
 20
78.73741853191742
 10
409.6149224262285
 20
79.06974591879735
 10
409.5830527697741
 20
79.40867372764298
 10
409.6149224262285
 20
79.73110458838615
 10
409.7083595311704
 20
80.01506537070957
 10
409.8569965003114
 20
80.24120461656497
 10
410.0507039698368
 20
80.39411131006046
 10
410.2762810958172
 20
80.46336511272432
 10
410.5183551698996
 20
80.44424649235223
  0
LWPOLYLINE
  5
368
330
70
100
AcDbEntity
  8
0
 62
    18
420
        0
370
    25
100
AcDbPolyline
 90
       25
 70
     0
 43
0.0
 10
410.5183551698996
 20
86.83248068631232
 10
410.7604292439824
 20
86.72629254528779
 10
410.9860063699628
 20
86.54027142993767
 10
411.179713839489
 20
86.28709437185834
 10
411.3283508086293
 20
85.98401496916315
 10
411.4217879135712
 20
85.65168758228322
 10
411.4536575700256
 20
85.31275977343758
 10
411.4217879135712
 20
84.99032891269441
 10
411.3283508086293
 20
84.70636813037131
 10
411.1797138394884
 20
84.48022888451559
 10
410.9860063699622
 20
84.32732219102009
 10
410.7604292439824
 20
84.25806838835624
 10
410.5183551698996
 20
84.27718700872835
 10
410.2762810958172
 20
84.38337514975255
 10
410.0507039698368
 20
84.56939626510299
 10
409.8569965003107
 20
84.822573323182
 10
409.7083595311704
 20
85.12565272587751
 10
409.6149224262285
 20
85.45798011275712
 10
409.5830527697741
 20
85.79690792160276
 10
409.6149224262285
 20
86.11933878234593
 10
409.7083595311704
 20
86.40329956466935
 10
409.8569965003114
 20
86.62943881052475
 10
410.0507039698368
 20
86.78234550402025
 10
410.2762810958172
 20
86.8515993066841
 10
410.5183551698996
 20
86.83248068631232
  0
LWPOLYLINE
  5
369
330
70
100
AcDbEntity
  8
0
 62
    18
420
        0
370
    25
100
AcDbPolyline
 90
       25
 70
     0
 43
0.0
 10
407.413151201483
 20
94.02440080622632
 10
407.6552252755659
 20
93.91821266520212
 10
407.8808024015457
 20
93.73219154985168
 10
408.0745098710718
 20
93.47901449177236
 10
408.2231468402127
 20
93.17593508907716
 10
408.3165839451547
 20
92.84360770219754
 10
408.3484536016085
 20
92.50467989335191
 10
408.3165839451547
 20
92.18224903260843
 10
408.2231468402127
 20
91.89828825028532
 10
408.0745098710718
 20
91.6721490044296
 10
407.8808024015457
 20
91.51924231093442
 10
407.6552252755659
 20
91.44998850827057
 10
407.413151201483
 20
91.46910712864235
 10
407.1710771274007
 20
91.57529526966689
 10
406.9455000014203
 20
91.76131638501701
 10
406.7517925318942
 20
92.01449344309633
 10
406.6031555627539
 20
92.31757284579153
 10
406.509718457812
 20
92.64990023267147
 10
406.4778488013576
 20
92.98882804151709
 10
406.509718457812
 20
93.31125890226024
 10
406.6031555627539
 20
93.59521968458336
 10
406.7517925318942
 20
93.82135893043907
 10
406.9455000014203
 20
93.97426562393425
 10
407.1710771274007
 20
94.04351942659811
 10
407.413151201483
 20
94.02440080622632
  0
LINE
  5
36A
330
70
100
AcDbEntity
  8
0
 62
    18
420
        0
370
    25
100
AcDbLine
 10
412.2018994901256
 20
73.52747380230507
 30
0.0
 11
411.6407180500504
 21
73.38222935785598
 31
0.0
  0
LINE
  5
36B
330
70
100
AcDbEntity
  8
0
 62
    18
420
        0
370
    25
100
AcDbLine
 10
412.2018994901256
 20
90.90347080987632
 30
0.0
 11
412.2018994901256
 21
73.52747380230507
 31
0.0
  0
LWPOLYLINE
  5
36C
330
70
100
AcDbEntity
  8
0
 62
    18
420
        0
370
    25
100
AcDbPolyline
 90
       15
 70
     0
 43
0.0
 10
410.8924761299499
 20
86.41825158042856
 10
410.7102608142303
 20
86.42387651653114
 10
410.5477913553306
 20
86.34582018769748
 10
410.4226738400956
 20
86.1925412083252
 10
410.3484666927007
 20
85.98064973419788
 10
410.3332114090076
 20
85.73310749437192
 10
410.378561135715
 20
85.47673953154591
 10
410.4796015262605
 20
85.23932729245162
 10
410.6253832865254
 20
85.04659807702438
 10
410.8001087007478
 20
84.91943708625848
 10
410.9848435591526
 20
84.87162418660908
 10
411.1595689733749
 20
84.90834064764682
 10
411.3053507336391
 20
85.02560767110349
 10
411.4063911241847
 20
85.21071755540246
 10
411.4502377450733
 20
85.42280259237626
  0
SPLINE
  5
36D
330
70
100
AcDbEntity
  8
0
 62
    18
420
        0
370
    25
100
AcDbSpline
210
0.0
220
0.0
230
1.0
 70
     8
 71
     3
 72
     8
 73
     4
 74
     0
 42
0.0000000001
 43
0.0000000001
 40
0.0
 40
0.0
 40
0.0
 40
0.0
 40
1.0
 40
1.0
 40
1.0
 40
1.0
 10
411.2691737353929
 20
86.12238020505834
 30
0.0
 10
411.1814899696917
 20
86.26149826516117
 30
0.0
 10
411.0484079036644
 20
86.36602553940884
 30
0.0
 10
410.8924761299499
 20
86.41825158042856
 30
0.0
  0
LINE
  5
36E
330
70
100
AcDbEntity
  8
0
 62
    18
420
        0
370
    25
100
AcDbLine
 10
406.2720822733304
 20
96.526690323694
 30
0.0
 11
405.7585999233185
 21
96.39379131218728
 31
0.0
  0
LINE
  5
36F
330
70
100
AcDbEntity
  8
0
 62
    18
420
        0
370
    25
100
AcDbLine
 10
406.2720822733304
 20
96.526690323694
 30
0.0
 11
409.2089318097245
 21
95.76657773107475
 31
0.0
  0
LINE
  5
370
330
70
100
AcDbEntity
  8
0
 62
    18
420
        0
370
    25
100
AcDbLine
 10
411.0795366099753
 20
84.93349018869469
 30
0.0
 11
411.1816766893686
 21
84.91985881745518
 31
0.0
  0
SPLINE
  5
371
330
70
100
AcDbEntity
  8
0
 62
    18
420
        0
370
    25
100
AcDbSpline
210
0.0
220
0.0
230
1.0
 70
     8
 71
     3
 72
    11
 73
     7
 74
     0
 42
0.0000000001
 43
0.0000000001
 40
0.0
 40
0.0
 40
0.0
 40
0.0
 40
1.0
 40
1.0
 40
1.0
 40
2.0
 40
2.0
 40
2.0
 40
2.0
 10
410.7903360466083
 20
86.43188295052198
 30
0.0
 10
410.4275903442124
 20
86.08765902659916
 30
0.0
 10
410.412575476093
 20
85.51454690788405
 30
0.0
 10
410.7567994000159
 20
85.15180120548787
 30
0.0
 10
410.8472609393738
 20
85.05647217007341
 30
0.0
 10
410.9573894931559
 20
84.98197726892056
 30
0.0
 10
411.0795366099753
 20
84.93349018869469
 30
0.0
  0
LWPOLYLINE
  5
372
330
70
100
AcDbEntity
  8
0
 62
    18
420
        0
370
    25
100
AcDbPolyline
 90
       15
 70
     0
 43
0.0
 10
407.7872721615333
 20
93.61017170034257
 10
407.6050568458138
 20
93.61579663644548
 10
407.4425873869141
 20
93.53774030761149
 10
407.3174698716791
 20
93.38446132823921
 10
407.2432627242843
 20
93.17256985411189
 10
407.228007440591
 20
92.92502761428591
 10
407.2733571672985
 20
92.66865965145992
 10
407.374397557844
 20
92.43124741236561
 10
407.5201793181089
 20
92.23851819693871
 10
407.6949047323313
 20
92.11135720617249
 10
407.8796395907354
 20
92.06354430652309
 10
408.0543650049584
 20
92.10026076756083
 10
408.2001467652226
 20
92.2175277910175
 10
408.3011871557681
 20
92.40263767531649
 10
408.3450337767435
 20
92.61472271333303
  0
SPLINE
  5
373
330
70
100
AcDbEntity
  8
0
 62
    18
420
        0
370
    25
100
AcDbSpline
210
0.0
220
0.0
230
1.0
 70
     8
 71
     3
 72
     8
 73
     4
 74
     0
 42
0.0000000001
 43
0.0000000001
 40
0.0
 40
0.0
 40
0.0
 40
0.0
 40
1.0
 40
1.0
 40
1.0
 40
1.0
 10
408.1639697675932
 20
93.31430032405057
 30
0.0
 10
408.0762860018739
 20
93.45341838459068
 30
0.0
 10
407.9432039356021
 20
93.5579456591852
 30
0.0
 10
407.7872721615333
 20
93.61017170034257
 30
0.0
  0
LWPOLYLINE
  5
374
330
70
100
AcDbEntity
  8
0
 62
    18
420
        0
370
    25
100
AcDbPolyline
 90
       15
 70
     0
 43
0.0
 10
410.8924761299499
 20
80.03001738646846
 10
410.7102608142303
 20
80.03564232257138
 10
410.5477913553306
 20
79.95758599373771
 10
410.4226738400956
 20
79.80430701436542
 10
410.3484666927007
 20
79.59241554023776
 10
410.3332114090076
 20
79.34487330041182
 10
410.378561135715
 20
79.08850533758613
 10
410.4796015262605
 20
78.8510930984915
 10
410.6253832865254
 20
78.65836388306459
 10
410.8001087007478
 20
78.53120289229869
 10
410.9848435591526
 20
78.48338999264898
 10
411.1595689733749
 20
78.52010645368671
 10
411.3053507336391
 20
78.63737347714369
 10
411.4063911241847
 20
78.82248336144268
 10
411.4502377450707
 20
79.03456839838087
  0
SPLINE
  5
375
330
70
100
AcDbEntity
  8
0
 62
    18
420
        0
370
    25
100
AcDbSpline
210
0.0
220
0.0
230
1.0
 70
     8
 71
     3
 72
     8
 73
     4
 74
     0
 42
0.0000000001
 43
0.0000000001
 40
0.0
 40
0.0
 40
0.0
 40
0.0
 40
1.0
 40
1.0
 40
1.0
 40
1.0
 10
411.2691737353833
 20
79.73414601111269
 30
0.0
 10
411.1814899696828
 20
79.87326407120875
 30
0.0
 10
411.0484079036592
 20
79.97779134545098
 30
0.0
 10
410.8924761299499
 20
80.03001738646846
 30
0.0
  0
LINE
  5
376
330
70
100
AcDbEntity
  8
0
 62
    18
420
        0
370
    25
100
AcDbLine
 10
407.9743326415588
 20
92.12541030860871
 30
0.0
 11
408.0764727182601
 21
92.11177893738526
 31
0.0
  0
SPLINE
  5
377
330
70
100
AcDbEntity
  8
0
 62
    18
420
        0
370
    25
100
AcDbSpline
210
0.0
220
0.0
230
1.0
 70
     8
 71
     3
 72
    11
 73
     7
 74
     0
 42
0.0000000001
 43
0.0000000001
 40
0.0
 40
0.0
 40
0.0
 40
0.0
 40
1.0
 40
1.0
 40
1.0
 40
2.0
 40
2.0
 40
2.0
 40
2.0
 10
407.6851320756313
 20
93.62380306899536
 30
0.0
 10
407.3223863743654
 20
93.27957914316348
 30
0.0
 10
407.3073715087103
 20
92.70646702381728
 30
0.0
 10
407.6515954345429
 20
92.34372132255177
 30
0.0
 10
407.7420569733514
 20
92.24839228854168
 30
0.0
 10
407.8521855260702
 20
92.17389738840143
 30
0.0
 10
407.9743326415588
 20
92.12541030860871
 30
0.0
  0
LINE
  5
378
330
70
100
AcDbEntity
  8
0
 62
    18
420
        0
370
    25
100
AcDbLine
 10
411.0795366099753
 20
78.54525599473459
 30
0.0
 11
411.1816766917467
 21
78.53162462348098
 31
0.0
  0
SPLINE
  5
379
330
70
100
AcDbEntity
  8
0
 62
    18
420
        0
370
    25
100
AcDbSpline
210
0.0
220
0.0
230
1.0
 70
     8
 71
     3
 72
    11
 73
     7
 74
     0
 42
0.0000000001
 43
0.0000000001
 40
0.0
 40
0.0
 40
0.0
 40
0.0
 40
1.0
 40
1.0
 40
1.0
 40
2.0
 40
2.0
 40
2.0
 40
2.0
 10
410.7903360493073
 20
80.04364875808045
 30
0.0
 10
410.4275903457191
 20
79.69942483617
 30
0.0
 10
410.4125754750028
 20
79.12631271812033
 30
0.0
 10
410.7567993969133
 20
78.7635670145322
 30
0.0
 10
410.8472609368493
 20
78.66823797763735
 30
0.0
 10
410.9573894917532
 20
78.59374307541703
 30
0.0
 10
411.0795366099753
 20
78.54525599473459
 30
0.0
  0
SPLINE
  5
37A
330
70
100
AcDbEntity
  8
0
 62
    18
420
        0
370
    25
100
AcDbSpline
210
0.0
220
0.0
230
1.0
 70
     8
 71
     3
 72
     8
 73
     4
 74
     0
 42
0.0000000001
 43
0.0000000001
 40
0.0
 40
0.0
 40
0.0
 40
0.0
 40
1.0
 40
1.0
 40
1.0
 40
1.0
 10
402.286692287439
 20
91.24787071193422
 30
0.0
 10
403.3827719978398
 20
90.91701465060337
 30
0.0
 10
404.5507182377199
 20
90.90725805271775
 30
0.0
 10
405.652172299385
 20
91.21975671657367
 30
0.0
  0
LINE
  5
37B
330
70
100
AcDbEntity
  8
0
 62
    18
420
        0
370
    25
100
AcDbLine
 10
405.652172299385
 20
91.21975671657367
 30
0.0
 11
405.652172299385
 21
86.1359999450202
 31
0.0
  0
SPLINE
  5
37C
330
70
100
AcDbEntity
  8
0
 62
    18
420
        0
370
    25
100
AcDbSpline
210
0.0
220
0.0
230
1.0
 70
     8
 71
     3
 72
     8
 73
     4
 74
     0
 42
0.0000000001
 43
0.0000000001
 40
0.0
 40
0.0
 40
0.0
 40
0.0
 40
1.0
 40
1.0
 40
1.0
 40
1.0
 10
402.286692287439
 20
86.16411394038077
 30
0.0
 10
403.3827719978398
 20
85.83325787905023
 30
0.0
 10
404.5507182377199
 20
85.82350128116429
 30
0.0
 10
405.652172299385
 20
86.1359999450202
 30
0.0
  0
LWPOLYLINE
  5
37D
330
70
100
AcDbEntity
  8
0
 62
    18
420
        0
370
    25
100
AcDbPolyline
 90
       10
 70
     0
 43
0.0
 10
410.2694878720772
 20
70.20443687595292
 10
410.4522555175925
 20
70.26131196589389
 10
410.8270523030745
 20
70.44387070451775
 10
411.1689088215865
 20
70.70497208604201
 10
411.4708658602438
 20
71.03930083929182
 10
411.7267764445116
 20
71.44005099497634
 10
411.9314309728792
 20
71.89906443559356
 10
412.0806632693246
 20
72.40699697117874
 10
412.1714353946419
 20
72.95350856006233
 10
412.2018994901256
 20
73.52747380230507
  0
SPLINE
  5
37E
330
70
100
AcDbEntity
  8
0
 62
    18
420
        0
370
    25
100
AcDbSpline
210
0.0
220
0.0
230
1.0
 70
     8
 71
     3
 72
     8
 73
     4
 74
     0
 42
0.0000000001
 43
0.0000000001
 40
0.0
 40
0.0
 40
0.0
 40
0.0
 40
1.0
 40
1.0
 40
1.0
 40
1.0
 10
402.286692287439
 20
81.03563952946982
 30
0.0
 10
403.3827719978398
 20
80.70478346813926
 30
0.0
 10
404.5507182377199
 20
80.69502687025332
 30
0.0
 10
405.652172299385
 20
81.00752553410925
 30
0.0
  0
LINE
  5
37F
330
70
100
AcDbEntity
  8
0
 62
    18
420
        0
370
    25
100
AcDbLine
 10
405.652172299385
 20
81.00752553410925
 30
0.0
 11
405.652172299385
 21
75.92376876255578
 31
0.0
  0
SPLINE
  5
380
330
70
100
AcDbEntity
  8
0
 62
    18
420
        0
370
    25
100
AcDbSpline
210
0.0
220
0.0
230
1.0
 70
     8
 71
     3
 72
     8
 73
     4
 74
     0
 42
0.0000000001
 43
0.0000000001
 40
0.0
 40
0.0
 40
0.0
 40
0.0
 40
1.0
 40
1.0
 40
1.0
 40
1.0
 10
402.286692287439
 20
75.95188275791667
 30
0.0
 10
403.3827719978398
 20
75.6210266965858
 30
0.0
 10
404.5507182377199
 20
75.61127009869986
 30
0.0
 10
405.652172299385
 20
75.92376876255578
 30
0.0
  0
LWPOLYLINE
  5
381
330
70
100
AcDbEntity
  8
0
 62
    18
420
        0
370
    25
100
AcDbPolyline
 90
       15
 70
     0
 43
0.0
 10
407.7872721615333
 20
74.44546911846257
 10
407.6050568458138
 20
74.45109405456548
 10
407.4425873869141
 20
74.37303772573215
 10
407.3174698716791
 20
74.21975874635953
 10
407.2432627242843
 20
74.0078672722322
 10
407.228007440591
 20
73.76032503240593
 10
407.2733571672985
 20
73.50395706958024
 10
407.374397557844
 20
73.26654483048563
 10
407.5201793181089
 20
73.07381561505903
 10
407.6949047323313
 20
72.94665462429313
 10
407.8796395907354
 20
72.89884172464375
 10
408.0543650049584
 20
72.93555818568115
 10
408.2001467652226
 20
73.05282520913813
 10
408.3011871557681
 20
73.23793509343712
 10
408.3450337766363
 20
73.45002013016387
  0
SPLINE
  5
382
330
70
100
AcDbEntity
  8
0
 62
    18
420
        0
370
    25
100
AcDbSpline
210
0.0
220
0.0
230
1.0
 70
     8
 71
     3
 72
     8
 73
     4
 74
     0
 42
0.0000000001
 43
0.0000000001
 40
0.0
 40
0.0
 40
0.0
 40
0.0
 40
1.0
 40
1.0
 40
1.0
 40
1.0
 10
408.1639697668269
 20
74.14959774331632
 30
0.0
 10
408.0762860011303
 20
74.28871580331293
 30
0.0
 10
407.9432039351619
 20
74.39324307747622
 30
0.0
 10
407.7872721615333
 20
74.44546911846257
 30
0.0
  0
LINE
  5
383
330
70
100
AcDbEntity
  8
0
 62
    18
420
        0
370
    25
100
AcDbLine
 10
407.9743326415588
 20
72.96070772672933
 30
0.0
 11
408.0764727228411
 21
72.94707635547862
 31
0.0
  0
SPLINE
  5
384
330
70
100
AcDbEntity
  8
0
 62
    18
420
        0
370
    25
100
AcDbSpline
210
0.0
220
0.0
230
1.0
 70
     8
 71
     3
 72
    11
 73
     7
 74
     0
 42
0.0000000001
 43
0.0000000001
 40
0.0
 40
0.0
 40
0.0
 40
0.0
 40
1.0
 40
1.0
 40
1.0
 40
2.0
 40
2.0
 40
2.0
 40
2.0
 10
407.6851320802465
 20
74.45910048971265
 30
0.0
 10
407.3223863769432
 20
74.11487656732155
 30
0.0
 10
407.3073715068462
 20
73.54176444911307
 30
0.0
 10
407.6515954292366
 20
73.17901874580986
 30
0.0
 10
407.7420569690353
 20
73.08368970926825
 30
0.0
 10
407.8521855236716
 20
73.00919480730271
 30
0.0
 10
407.9743326415588
 20
72.96070772672869
 30
0.0
  0
LINE
  5
385
330
70
100
AcDbEntity
  8
0
 62
    18
420
        0
370
    25
100
AcDbLine
 10
405.7306086426141
 20
111.58034250447
 30
0.0
 11
408.6477503696493
 21
110.8253306682502
 31
0.0
  0
LINE
  5
386
330
70
100
AcDbEntity
  8
0
 62
    18
420
        0
370
    25
100
AcDbLine
 10
408.6477503696493
 20
136.3782674440897
 30
0.0
 11
405.7210788862508
 21
137.1357457627516
 31
0.0
  0
LWPOLYLINE
  5
387
330
70
100
AcDbEntity
  8
0
 62
    18
420
        0
370
    25
100
AcDbPolyline
 90
       12
 70
     0
 43
0.0
 10
408.6477503696493
 20
136.3782674440897
 10
409.0736940810428
 20
136.2264103711057
 10
409.4909668067924
 20
135.9944152135406
 10
409.8910740775173
 20
135.6870047237838
 10
410.2658708629994
 20
135.3104368929077
 10
410.6077273815115
 20
134.8723775560172
 10
410.9096844201687
 20
134.3817443379524
 10
411.1655950044364
 20
133.8485251161644
 10
411.370249532804
 20
133.2835746963307
 10
411.5194818292494
 20
132.698393839817
 10
411.6102539545674
 20
132.1048951413398
 10
411.6407180500511
 20
131.5151605228912
  0
LINE
  5
388
330
70
100
AcDbEntity
  8
0
 62
    18
420
        0
370
    25
100
AcDbLine
 10
411.6407180500511
 20
131.5151605228912
 30
0.0
 11
411.6407180500504
 21
114.13916351532
 31
0.0
  0
LWPOLYLINE
  5
389
330
70
100
AcDbEntity
  8
0
 62
    18
420
        0
370
    25
100
AcDbPolyline
 90
       12
 70
     0
 43
0.0
 10
411.6407180500504
 20
114.13916351532
 10
411.6102539545674
 20
113.5651982730772
 10
411.5194818292494
 20
113.0186866841933
 10
411.370249532804
 20
112.5107541486085
 10
411.1655950044364
 20
112.0517407079912
 10
410.9096844201687
 20
111.6509905523067
 10
410.6077273815115
 20
111.3166617990566
 10
410.2658708629994
 20
111.0555604175327
 10
409.8910740775173
 20
110.8730016789085
 10
409.4909668067924
 20
110.7727019526468
 10
409.0736940810428
 20
110.7567030519333
 10
408.6477503696493
 20
110.8253306682502
  0
LWPOLYLINE
  5
38A
330
70
100
AcDbEntity
  8
0
 62
    18
420
        0
370
    25
100
AcDbPolyline
 90
       25
 70
     0
 43
0.0
 10
407.4131512014837
 20
115.616632381811
 10
407.6552252755659
 20
115.5104442407868
 10
407.8808024015463
 20
115.3244231254366
 10
408.0745098710725
 20
115.0712460673573
 10
408.2231468402127
 20
114.7681666646621
 10
408.3165839451547
 20
114.4358392777822
 10
408.3484536016091
 20
114.0969114689366
 10
408.3165839451547
 20
113.7744806081934
 10
408.2231468402127
 20
113.49051982587
 10
408.0745098710725
 20
113.2643805800146
 10
407.8808024015463
 20
113.1114738865191
 10
407.6552252755659
 20
113.0422200838552
 10
407.4131512014837
 20
113.0613387042273
 10
407.1710771274007
 20
113.1675268452515
 10
406.945500001421
 20
113.3535479606017
 10
406.7517925318949
 20
113.606725018681
 10
406.6031555627545
 20
113.9098044213762
 10
406.509718457812
 20
114.2421318082561
 10
406.4778488013582
 20
114.5810596171017
 10
406.509718457812
 20
114.9034904778449
 10
406.6031555627545
 20
115.1874512601683
 10
406.7517925318949
 20
115.4135905060237
 10
406.945500001421
 20
115.5664971995189
 10
407.1710771274007
 20
115.6357510021831
 10
407.4131512014837
 20
115.616632381811
  0
LWPOLYLINE
  5
38B
330
70
100
AcDbEntity
  8
0
 62
    18
420
        0
370
    25
100
AcDbPolyline
 90
       25
 70
     0
 43
0.0
 10
410.5183551699002
 20
121.2011806498169
 10
410.7604292439831
 20
121.0949925087923
 10
410.9860063699628
 20
120.9089713934422
 10
411.179713839489
 20
120.6557943353629
 10
411.3283508086293
 20
120.3527149326677
 10
411.4217879135712
 20
120.0203875457877
 10
411.4536575700256
 20
119.6814597369421
 10
411.4217879135712
 20
119.359028876199
 10
411.3283508086293
 20
119.0750680938755
 10
411.179713839489
 20
118.8489288480201
 10
410.9860063699628
 20
118.6960221545246
 10
410.7604292439831
 20
118.6267683518608
 10
410.5183551699002
 20
118.6458869722329
 10
410.2762810958172
 20
118.7520751132571
 10
410.0507039698375
 20
118.9380962286072
 10
409.8569965003114
 20
119.1912732866865
 10
409.708359531171
 20
119.4943526893821
 10
409.6149224262285
 20
119.8266800762617
 10
409.5830527697748
 20
120.1656078851073
 10
409.6149224262285
 20
120.4880387458505
 10
409.708359531171
 20
120.7719995281739
 10
409.8569965003114
 20
120.9981387740293
 10
410.0507039698375
 20
121.1510454675248
 10
410.2762810958172
 20
121.2202992701886
 10
410.5183551699002
 20
121.2011806498169
  0
LWPOLYLINE
  5
38C
330
70
100
AcDbEntity
  8
0
 62
    18
420
        0
370
    25
100
AcDbPolyline
 90
       25
 70
     0
 43
0.0
 10
410.5183551699002
 20
127.5894148437766
 10
410.7604292439831
 20
127.4832267027524
 10
410.9860063699628
 20
127.2972055874023
 10
411.179713839489
 20
127.044028529323
 10
411.3283508086293
 20
126.7409491266278
 10
411.4217879135712
 20
126.4086217397478
 10
411.4536575700256
 20
126.0696939309022
 10
411.4217879135712
 20
125.7472630701591
 10
411.3283508086293
 20
125.4633022878356
 10
411.179713839489
 20
125.2371630419802
 10
410.9860063699628
 20
125.0842563484847
 10
410.7604292439824
 20
125.0150025458209
 10
410.5183551699002
 20
125.0341211661927
 10
410.2762810958172
 20
125.1403093072172
 10
410.0507039698375
 20
125.3263304225673
 10
409.8569965003114
 20
125.5795074806467
 10
409.708359531171
 20
125.8825868833418
 10
409.6149224262285
 20
126.2149142702218
 10
409.5830527697748
 20
126.5538420790674
 10
409.6149224262285
 20
126.8762729398106
 10
409.708359531171
 20
127.160233722134
 10
409.8569965003114
 20
127.3863729679894
 10
410.0507039698375
 20
127.5392796614849
 10
410.2762810958172
 20
127.6085334641487
 10
410.5183551699002
 20
127.5894148437766
  0
LWPOLYLINE
  5
38D
330
70
100
AcDbEntity
  8
0
 62
    18
420
        0
370
    25
100
AcDbPolyline
 90
       25
 70
     0
 43
0.0
 10
407.4131512014837
 20
134.7813349636907
 10
407.6552252755659
 20
134.6751468226664
 10
407.8808024015463
 20
134.4891257073163
 10
408.0745098710725
 20
134.235948649237
 10
408.2231468402127
 20
133.9328692465418
 10
408.3165839451547
 20
133.6005418596619
 10
408.3484536016091
 20
133.2616140508162
 10
408.3165839451547
 20
132.9391831900731
 10
408.2231468402127
 20
132.6552224077496
 10
408.0745098710725
 20
132.4290831618942
 10
407.8808024015463
 20
132.2761764683987
 10
407.6552252755659
 20
132.2069226657349
 10
407.4131512014837
 20
132.226041286107
 10
407.1710771274007
 20
132.3322294271312
 10
406.945500001421
 20
132.5182505424813
 10
406.7517925318949
 20
132.7714276005606
 10
406.6031555627545
 20
133.0745070032558
 10
406.509718457812
 20
133.4068343901358
 10
406.4778488013582
 20
133.7457621989814
 10
406.509718457812
 20
134.0681930597246
 10
406.6031555627545
 20
134.352153842048
 10
406.7517925318949
 20
134.5782930879034
 10
406.945500001421
 20
134.7311997813989
 10
407.1710771274007
 20
134.8004535840628
 10
407.4131512014837
 20
134.7813349636907
  0
LINE
  5
38E
330
70
100
AcDbEntity
  8
0
 62
    18
420
        0
370
    25
100
AcDbLine
 10
409.2089318097245
 20
136.5235118885394
 30
0.0
 11
408.6477503696493
 21
136.3782674440897
 31
0.0
  0
LWPOLYLINE
  5
38F
330
70
100
AcDbEntity
  8
0
 62
    18
420
        0
370
    25
100
AcDbPolyline
 90
       12
 70
     0
 43
0.0
 10
412.2018994901262
 20
131.6604049673406
 10
412.1714353946425
 20
132.2501395857895
 10
412.0806632693253
 20
132.8436382842667
 10
411.9314309728798
 20
133.4288191407801
 10
411.7267764445116
 20
133.9937695606138
 10
411.4708658602438
 20
134.5269887824021
 10
411.1689088215865
 20
135.0176220004666
 10
410.8270523030752
 20
135.4556813373571
 10
410.4522555175925
 20
135.8322491682332
 10
410.0521482468676
 20
136.1396596579904
 10
409.6348755211179
 20
136.3716548155554
 10
409.2089318097245
 20
136.5235118885394
  0
LINE
  5
390
330
70
100
AcDbEntity
  8
0
 62
    18
420
        0
370
    25
100
AcDbLine
 10
411.6407180500511
 20
131.5151605228912
 30
0.0
 11
412.2018994901262
 21
131.6604049673406
 31
0.0
  0
LINE
  5
391
330
70
100
AcDbEntity
  8
0
 62
    18
420
        0
370
    25
100
AcDbLine
 10
412.2018994901262
 20
114.2844079597697
 30
0.0
 11
411.6407180500504
 21
114.13916351532
 31
0.0
  0
LINE
  5
392
330
70
100
AcDbEntity
  8
0
 62
    18
420
        0
370
    25
100
AcDbLine
 10
412.2018994901262
 20
131.6604049673406
 30
0.0
 11
412.2018994901262
 21
114.2844079597697
 31
0.0
  0
LWPOLYLINE
  5
393
330
70
100
AcDbEntity
  8
0
 62
    18
420
        0
370
    25
100
AcDbPolyline
 90
       15
 70
     0
 43
0.0
 10
410.8924761299505
 20
127.1751857378929
 10
410.7102608142303
 20
127.1808106739958
 10
410.5477913553306
 20
127.1027543451621
 10
410.4226738400964
 20
126.9494753657898
 10
410.3484666927014
 20
126.7375838916622
 10
410.3332114090082
 20
126.4900416518362
 10
410.3785611357158
 20
126.2336736890105
 10
410.4796015262611
 20
125.9962614499159
 10
410.6253832865254
 20
125.803532234489
 10
410.8001087007478
 20
125.6763712437231
 10
410.9848435591526
 20
125.6285583440734
 10
411.1595689733749
 20
125.6652748051111
 10
411.3053507336397
 20
125.7825418285681
 10
411.4063911241853
 20
125.9676517128671
 10
411.4502377423114
 20
126.1797367165338
  0
SPLINE
  5
394
330
70
100
AcDbEntity
  8
0
 62
    18
420
        0
370
    25
100
AcDbSpline
210
0.0
220
0.0
230
1.0
 70
     8
 71
     3
 72
     8
 73
     4
 74
     0
 42
0.0000000001
 43
0.0000000001
 40
0.0
 40
0.0
 40
0.0
 40
0.0
 40
1.0
 40
1.0
 40
1.0
 40
1.0
 10
411.2691737163255
 20
126.8793143910465
 30
0.0
 10
411.1814899511678
 20
127.0184324376236
 30
0.0
 10
411.0484078927189
 20
127.1229597011328
 30
0.0
 10
410.8924761299505
 20
127.1751857378929
 30
0.0
  0
LINE
  5
395
330
70
100
AcDbEntity
  8
0
 62
    18
420
        0
370
    25
100
AcDbLine
 10
406.2720822733304
 20
137.2836244811586
 30
0.0
 11
405.7585999233191
 21
137.1507254696516
 31
0.0
  0
LINE
  5
396
330
70
100
AcDbEntity
  8
0
 62
    18
420
        0
370
    25
100
AcDbLine
 10
406.2720822733304
 20
137.2836244811586
 30
0.0
 11
409.2089318097245
 21
136.5235118885394
 31
0.0
  0
LINE
  5
397
330
70
100
AcDbEntity
  8
0
 62
    18
420
        0
370
    25
100
AcDbLine
 10
411.0795366099753
 20
125.690424346159
 30
0.0
 11
411.1816766586466
 21
125.6767929751031
 31
0.0
  0
SPLINE
  5
398
330
70
100
AcDbEntity
  8
0
 62
    18
420
        0
370
    25
100
AcDbSpline
210
0.0
220
0.0
230
1.0
 70
     8
 71
     3
 72
    11
 73
     7
 74
     0
 42
0.0000000001
 43
0.0000000001
 40
0.0
 40
0.0
 40
0.0
 40
0.0
 40
1.0
 40
1.0
 40
1.0
 40
2.0
 40
2.0
 40
2.0
 40
2.0
 10
410.7903360186179
 20
127.1888170922377
 30
0.0
 10
410.4275903285812
 20
126.8445931474456
 30
0.0
 10
410.4125754873997
 20
126.2714810218319
 30
0.0
 10
410.756799432192
 20
125.9087353317951
 30
0.0
 10
410.847260965548
 20
125.8134063117333
 30
0.0
 10
410.9573895077039
 20
125.7389114216501
 30
0.0
 10
411.0795366099753
 20
125.690424346159
 30
0.0
  0
LWPOLYLINE
  5
399
330
70
100
AcDbEntity
  8
0
 62
    18
420
        0
370
    25
100
AcDbPolyline
 90
       15
 70
     0
 43
0.0
 10
407.787272161534
 20
134.3671058578072
 10
407.6050568458138
 20
134.3727307939098
 10
407.4425873869141
 20
134.2946744650761
 10
407.3174698716798
 20
134.1413954857038
 10
407.2432627242843
 20
133.9295040115762
 10
407.2280074405917
 20
133.6819617717503
 10
407.2733571672985
 20
133.4255938089246
 10
407.374397557844
 20
133.1881815698299
 10
407.5201793181089
 20
132.995452354403
 10
407.6949047323313
 20
132.8682913636371
 10
407.879639590736
 20
132.8204784639877
 10
408.0543650049584
 20
132.8571949250251
 10
408.2001467652232
 20
132.9744619484821
 10
408.3011871557688
 20
133.1595718327811
 10
408.3450337765683
 20
133.3716568686846
  0
SPLINE
  5
39A
330
70
100
AcDbEntity
  8
0
 62
    18
420
        0
370
    25
100
AcDbSpline
210
0.0
220
0.0
230
1.0
 70
     8
 71
     3
 72
     8
 73
     4
 74
     0
 42
0.0000000001
 43
0.0000000001
 40
0.0
 40
0.0
 40
0.0
 40
0.0
 40
1.0
 40
1.0
 40
1.0
 40
1.0
 10
408.1639697663546
 20
134.0712344833675
 30
0.0
 10
408.0762860006707
 20
134.2103525430291
 30
0.0
 10
407.9432039348911
 20
134.3148798169264
 30
0.0
 10
407.787272161534
 20
134.3671058578072
 30
0.0
  0
LWPOLYLINE
  5
39B
330
70
100
AcDbEntity
  8
0
 62
    18
420
        0
370
    25
100
AcDbPolyline
 90
       15
 70
     0
 43
0.0
 10
410.8924761299505
 20
120.7869515439331
 10
410.7102608142303
 20
120.7925764800357
 10
410.5477913553306
 20
120.714520151202
 10
410.4226738400964
 20
120.5612411718297
 10
410.3484666927014
 20
120.3493496977024
 10
410.3332114090082
 20
120.1018074578761
 10
410.3785611357158
 20
119.8454394950504
 10
410.4796015262611
 20
119.6080272559558
 10
410.6253832865254
 20
119.4152980405289
 10
410.8001087007478
 20
119.288137049763
 10
410.9848435591526
 20
119.2403241501136
 10
411.1595689733749
 20
119.2770406111514
 10
411.3053507336397
 20
119.394307634608
 10
411.4063911241853
 20
119.579417518907
 10
411.4502377441775
 20
119.7915025450752
  0
SPLINE
  5
39C
330
70
100
AcDbEntity
  8
0
 62
    18
420
        0
370
    25
100
AcDbSpline
210
0.0
220
0.0
230
1.0
 70
     8
 71
     3
 72
     8
 73
     4
 74
     0
 42
0.0000000001
 43
0.0000000001
 40
0.0
 40
0.0
 40
0.0
 40
0.0
 40
1.0
 40
1.0
 40
1.0
 40
1.0
 10
411.2691737291794
 20
120.4910801778589
 30
0.0
 10
411.1814899636546
 20
120.6301982335538
 30
0.0
 10
411.0484079000978
 20
120.7347255043014
 30
0.0
 10
410.8924761299505
 20
120.7869515439331
 30
0.0
  0
LINE
  5
39D
330
70
100
AcDbEntity
  8
0
 62
    18
420
        0
370
    25
100
AcDbLine
 10
407.9743326415588
 20
132.8823444660733
 30
0.0
 11
408.0764727647903
 21
132.868713094572
 31
0.0
  0
SPLINE
  5
39E
330
70
100
AcDbEntity
  8
0
 62
    18
420
        0
370
    25
100
AcDbSpline
210
0.0
220
0.0
230
1.0
 70
     8
 71
     3
 72
    11
 73
     7
 74
     0
 42
0.0000000001
 43
0.0000000001
 40
0.0
 40
0.0
 40
0.0
 40
0.0
 40
1.0
 40
1.0
 40
1.0
 40
2.0
 40
2.0
 40
2.0
 40
2.0
 10
407.6851321186489
 20
134.3807372506627
 30
0.0
 10
407.3223863983882
 20
134.0365133569038
 30
0.0
 10
407.3073714913344
 20
133.4634012481598
 30
0.0
 10
407.6515953850935
 20
133.1006555278994
 30
0.0
 10
407.7420569331259
 20
133.0053264702949
 30
0.0
 10
407.8521855037141
 20
132.9308315531423
 30
0.0
 10
407.9743326415588
 20
132.8823444660733
 30
0.0
  0
LINE
  5
39F
330
70
100
AcDbEntity
  8
0
 62
    18
420
        0
370
    25
100
AcDbLine
 10
411.0795366099753
 20
119.3021901521992
 30
0.0
 11
411.1816767165772
 21
119.2885587807974
 31
0.0
  0
SPLINE
  5
3A0
330
70
100
AcDbEntity
  8
0
 62
    18
420
        0
370
    25
100
AcDbSpline
210
0.0
220
0.0
230
1.0
 70
     8
 71
     3
 72
    11
 73
     7
 74
     0
 42
0.0000000001
 43
0.0000000001
 40
0.0
 40
0.0
 40
0.0
 40
0.0
 40
1.0
 40
1.0
 40
1.0
 40
2.0
 40
2.0
 40
2.0
 40
2.0
 10
410.7903360721632
 20
120.8005829284044
 30
0.0
 10
410.4275903584831
 20
120.4563590235349
 30
0.0
 10
410.4125754657706
 20
119.8832469111181
 30
0.0
 10
410.7567993706402
 20
119.5205011974376
 30
0.0
 10
410.8472609154776
 20
119.4251721480069
 30
0.0
 10
410.9573894798753
 20
119.3506772367476
 30
0.0
 10
411.0795366099753
 20
119.3021901521992
 30
0.0
  0
SPLINE
  5
3A1
330
70
100
AcDbEntity
  8
0
 62
    18
420
        0
370
    25
100
AcDbSpline
210
0.0
220
0.0
230
1.0
 70
     8
 71
     3
 72
     8
 73
     4
 74
     0
 42
0.0000000001
 43
0.0000000001
 40
0.0
 40
0.0
 40
0.0
 40
0.0
 40
1.0
 40
1.0
 40
1.0
 40
1.0
 10
402.286692287439
 20
132.0048048693986
 30
0.0
 10
403.3827719978398
 20
131.673948808068
 30
0.0
 10
404.5507182377199
 20
131.6641922101821
 30
0.0
 10
405.6521722993856
 20
131.976690874038
 30
0.0
  0
LINE
  5
3A2
330
70
100
AcDbEntity
  8
0
 62
    18
420
        0
370
    25
100
AcDbLine
 10
405.652172299385
 20
131.976690874038
 30
0.0
 11
405.652172299385
 21
126.8929341024845
 31
0.0
  0
SPLINE
  5
3A3
330
70
100
AcDbEntity
  8
0
 62
    18
420
        0
370
    25
100
AcDbSpline
210
0.0
220
0.0
230
1.0
 70
     8
 71
     3
 72
     8
 73
     4
 74
     0
 42
0.0000000001
 43
0.0000000001
 40
0.0
 40
0.0
 40
0.0
 40
0.0
 40
1.0
 40
1.0
 40
1.0
 40
1.0
 10
402.286692287439
 20
126.9210480978454
 30
0.0
 10
403.3827719978398
 20
126.5901920365145
 30
0.0
 10
404.5507182377199
 20
126.5804354386289
 30
0.0
 10
405.6521722993856
 20
126.8929341024845
 30
0.0
  0
LWPOLYLINE
  5
3A4
330
70
100
AcDbEntity
  8
0
 62
    18
420
        0
370
    25
100
AcDbPolyline
 90
       10
 70
     0
 43
0.0
 10
410.2694878720772
 20
110.9613710334172
 10
410.4522555175925
 20
111.0182461233582
 10
410.8270523030745
 20
111.2008048619824
 10
411.1689088215865
 20
111.461906243506
 10
411.4708658602438
 20
111.7962349967561
 10
411.7267764445116
 20
112.196985152441
 10
411.9314309728798
 20
112.6559985930582
 10
412.0806632693246
 20
113.1639311286431
 10
412.1714353946425
 20
113.710442717527
 10
412.2018994901256
 20
114.2844079597697
  0
SPLINE
  5
3A5
330
70
100
AcDbEntity
  8
0
 62
    18
420
        0
370
    25
100
AcDbSpline
210
0.0
220
0.0
230
1.0
 70
     8
 71
     3
 72
     8
 73
     4
 74
     0
 42
0.0000000001
 43
0.0000000001
 40
0.0
 40
0.0
 40
0.0
 40
0.0
 40
1.0
 40
1.0
 40
1.0
 40
1.0
 10
402.286692287439
 20
121.7925736869345
 30
0.0
 10
403.3827719978398
 20
121.4617176256036
 30
0.0
 10
404.5507182377199
 20
121.4519610277176
 30
0.0
 10
405.6521722993856
 20
121.7644596915736
 30
0.0
  0
LINE
  5
3A6
330
70
100
AcDbEntity
  8
0
 62
    18
420
        0
370
    25
100
AcDbLine
 10
405.652172299385
 20
121.7644596915736
 30
0.0
 11
405.652172299385
 21
116.6807029200204
 31
0.0
  0
SPLINE
  5
3A7
330
70
100
AcDbEntity
  8
0
 62
    18
420
        0
370
    25
100
AcDbSpline
210
0.0
220
0.0
230
1.0
 70
     8
 71
     3
 72
     8
 73
     4
 74
     0
 42
0.0000000001
 43
0.0000000001
 40
0.0
 40
0.0
 40
0.0
 40
0.0
 40
1.0
 40
1.0
 40
1.0
 40
1.0
 10
402.286692287439
 20
116.708816915381
 30
0.0
 10
403.3827719978398
 20
116.3779608540504
 30
0.0
 10
404.5507182377199
 20
116.3682042561645
 30
0.0
 10
405.6521722993856
 20
116.6807029200204
 30
0.0
  0
LWPOLYLINE
  5
3A8
330
70
100
AcDbEntity
  8
0
 62
    18
420
        0
370
    25
100
AcDbPolyline
 90
       15
 70
     0
 43
0.0
 10
407.787272161534
 20
115.2024032759272
 10
407.6050568458138
 20
115.2080282120301
 10
407.4425873869141
 20
115.1299718831965
 10
407.3174698716798
 20
114.9766929038242
 10
407.2432627242843
 20
114.7648014296965
 10
407.2280074405917
 20
114.5172591898706
 10
407.2733571672985
 20
114.2608912270449
 10
407.374397557844
 20
114.0234789879503
 10
407.5201793181089
 20
113.8307497725234
 10
407.6949047323313
 20
113.7035887817575
 10
407.879639590736
 20
113.6557758821081
 10
408.0543650049584
 20
113.6924923431458
 10
408.2001467652232
 20
113.8097593666024
 10
408.3011871557681
 20
113.9948692509014
 10
408.3450337776931
 20
114.2069543003714
  0
SPLINE
  5
3A9
330
70
100
AcDbEntity
  8
0
 62
    18
420
        0
370
    25
100
AcDbSpline
210
0.0
220
0.0
230
1.0
 70
     8
 71
     3
 72
     8
 73
     4
 74
     0
 42
0.0000000001
 43
0.0000000001
 40
0.0
 40
0.0
 40
0.0
 40
0.0
 40
1.0
 40
1.0
 40
1.0
 40
1.0
 10
408.1639697741679
 20
114.9065318897996
 30
0.0
 10
408.0762860082614
 20
115.0456499550036
 30
0.0
 10
407.9432039393766
 20
115.150177233301
 30
0.0
 10
407.787272161534
 20
115.2024032759272
 30
0.0
  0
LINE
  5
3AA
330
70
100
AcDbEntity
  8
0
 62
    18
420
        0
370
    25
100
AcDbLine
 10
407.9743326415588
 20
113.7176418841933
 30
0.0
 11
408.0764727425369
 21
113.7040105128252
 31
0.0
  0
SPLINE
  5
3AB
330
70
100
AcDbEntity
  8
0
 62
    18
420
        0
370
    25
100
AcDbSpline
210
0.0
220
0.0
230
1.0
 70
     8
 71
     3
 72
    11
 73
     7
 74
     0
 42
0.0000000001
 43
0.0000000001
 40
0.0
 40
0.0
 40
0.0
 40
0.0
 40
1.0
 40
1.0
 40
1.0
 40
2.0
 40
2.0
 40
2.0
 40
2.0
 10
407.6851320986793
 20
115.2160346575475
 30
0.0
 10
407.3223863872361
 20
114.8718107488996
 30
0.0
 10
407.3073714994012
 20
114.2986986352341
 30
0.0
 10
407.651595408049
 20
113.9359529237912
 30
0.0
 10
407.7420569517993
 20
113.8406238771397
 30
0.0
 10
407.8521855140923
 20
113.7661289678847
 30
0.0
 10
407.9743326415588
 20
113.7176418841933
 30
0.0
  0
SPLINE
  5
3AC
330
70
100
AcDbEntity
  8
0
 62
    18
420
        0
370
    25
100
AcDbSpline
210
0.0
220
0.0
230
1.0
 70
     8
 71
     3
 72
     8
 73
     4
 74
     0
 42
0.0000000001
 43
0.0000000001
 40
0.0
 40
0.0
 40
0.0
 40
0.0
 40
1.0
 40
1.0
 40
1.0
 40
1.0
 10
402.2962220438017
 20
30.06894067198315
 30
0.0
 10
403.2961560942245
 20
29.77177840294259
 30
0.0
 10
404.3556569165811
 20
29.736432429724
 30
0.0
 10
405.3731728795446
 20
29.96629061306722
 30
0.0
  0
LWPOLYLINE
  5
3AD
330
70
100
AcDbEntity
  8
0
 62
    18
420
        0
370
    25
100
AcDbPolyline
 90
        3
 70
     0
 43
0.0
 10
405.7210788862508
 20
30.06894067198315
 10
405.665172222442
 20
30.04847201063247
 10
405.3731728795446
 20
29.96629061306722
  0
LWPOLYLINE
  5
3AE
330
70
100
AcDbEntity
  8
0
 62
    18
420
        0
370
    25
100
AcDbPolyline
 90
        3
 70
     0
 43
0.0
 10
405.3906667566535
 20
29.93560159035217
 10
405.6779526258359
 20
30.01591023065211
 10
405.7790766908238
 20
30.05392973558531
  0
SPLINE
  5
3AF
330
70
100
AcDbEntity
  8
0
 62
    18
420
        0
370
    25
100
AcDbSpline
210
0.0
220
0.0
230
1.0
 70
     8
 71
     3
 72
     8
 73
     4
 74
     0
 42
0.0000000001
 43
0.0000000001
 40
0.0
 40
0.0
 40
0.0
 40
0.0
 40
1.0
 40
1.0
 40
1.0
 40
1.0
 10
402.2382242392287
 20
30.05392973558531
 30
0.0
 10
403.261484510346
 20
29.74468479831569
 30
0.0
 10
404.3471031884385
 20
29.70393568270135
 30
0.0
 10
405.3906667566535
 20
29.93560159035217
 30
0.0
  0
LWPOLYLINE
  5
3B0
330
70
100
AcDbEntity
  8
0
 62
    18
420
        0
370
    25
100
AcDbPolyline
 90
       13
 70
     0
 43
0.0
 10
405.3906667566535
 20
29.22011936062855
 10
405.0468009781124
 20
29.15642220531187
 10
404.6604331955877
 20
29.11194430400098
 10
404.2473813514922
 20
29.0885065872018
 10
403.8245558368554
 20
29.08706859779431
 10
403.409267177926
 20
29.10768920723251
 10
403.0185173411955
 20
29.14952420534469
 10
402.6683036708901
 20
29.21086086239185
 10
402.37296395582
 20
29.28918804842725
 10
402.1445894386225
 20
29.38129903925327
 10
401.9925297988636
 20
29.4834228000808
 10
401.923010376062
 20
29.59137837214428
 10
401.9187570691256
 20
29.62587014982147
  0
LWPOLYLINE
  5
3B1
330
70
100
AcDbEntity
  8
0
 62
    18
420
        0
370
    25
100
AcDbPolyline
 90
        6
 70
     0
 43
0.0
 10
406.0985438609269
 20
29.62587014982147
 10
406.0970721063074
 20
29.60557395956371
 10
406.0385364732016
 20
29.49718288441959
 10
405.8968970684202
 20
29.3940602810422
 10
405.6779526258359
 20
29.30042800092848
 10
405.3906667566535
 20
29.22011936062855
  0
SPLINE
  5
3B2
330
70
100
AcDbEntity
  8
0
 62
    18
420
        0
370
    25
100
AcDbSpline
210
0.0
220
0.0
230
1.0
 70
     8
 71
     3
 72
     8
 73
     4
 74
     0
 42
0.0000000001
 43
0.0000000001
 40
0.0
 40
0.0
 40
0.0
 40
0.0
 40
1.0
 40
1.0
 40
1.0
 40
1.0
 10
405.3731728795446
 20
29.19970250979199
 30
0.0
 10
405.5987891769584
 20
29.23375662404006
 30
0.0
 10
405.812749761647
 20
29.32213067666879
 30
0.0
 10
405.9966358292302
 20
29.45721698428267
 30
0.0
  0
LWPOLYLINE
  5
3B3
330
70
100
AcDbEntity
  8
0
 62
    18
420
        0
370
    25
100
AcDbPolyline
 90
       11
 70
     0
 43
0.0
 10
402.0206651008224
 20
29.45721698428267
 10
402.1148909788713
 20
29.38823467168756
 10
402.3266419999425
 20
29.29096313546418
 10
402.61190486211
 20
29.20721185687744
 10
402.9582122094543
 20
29.14064116868371
 10
403.3504287491295
 20
29.09416052939882
 10
403.771412736287
 20
29.0698013659985
 10
404.2027651505832
 20
29.06862829081163
 10
404.6256338216552
 20
29.09069257285331
 10
405.0215373594275
 20
29.13502989712163
 10
405.3731728795446
 20
29.19970250979199
  0
LWPOLYLINE
  5
3B4
330
70
100
AcDbEntity
  8
0
 62
    18
420
        0
370
    25
100
AcDbPolyline
 90
       20
 70
     0
 43
0.0
 10
401.9951781089734
 20
56.80581210574108
 10
401.9416999145591
 20
56.74080577115041
 10
401.9218454931292
 20
56.63148173193988
 10
401.9874251124384
 20
56.52336114904623
 10
402.1357539351659
 20
56.42087049183835
 10
402.3607593618819
 20
56.32820573986318
 10
402.65322964398
 20
56.24916059895531
 10
403.0011910137469
 20
56.18697118646966
 10
403.3903978918198
 20
56.14418354426195
 10
403.8049161028823
 20
56.12254940342994
 10
404.2277752226683
 20
56.12295446824241
 10
404.6416633491308
 20
56.14538215529741
 10
405.0296358537417
 20
56.18891427245261
 10
405.3758090965781
 20
56.25176860971613
 10
405.6660107044045
 20
56.33137190313594
 10
405.8883597892994
 20
56.42446518452616
 10
406.0337533536015
 20
56.52723720400818
 10
406.0962389677061
 20
56.63548046303035
 10
406.0732584632301
 20
56.74476346984883
 10
406.0221228210791
 20
56.80581210574108
  0
LWPOLYLINE
  5
3B5
330
70
100
AcDbEntity
  8
0
 62
    18
420
        0
370
    25
100
AcDbPolyline
 90
       31
 70
     0
 43
0.0
 10
405.1811513858043
 20
57.12589108593091
 10
405.5085523542558
 20
57.05319377159707
 10
405.7704004128205
 20
56.96446712905824
 10
405.9552515448531
 20
56.86358893835077
 10
406.0550268688676
 20
56.75496806047558
 10
406.0653657244317
 20
56.6433517490175
 10
405.9858162539448
 20
56.53361817238106
 10
405.8198551509881
 20
56.43056321442534
 10
405.5747357121304
 20
56.33869087132641
 10
405.2611708330638
 20
56.26201640532894
 10
404.8928648036542
 20
56.20389085852249
 10
404.4859143647153
 20
56.16685459621989
 10
404.0581052031939
 20
56.15252628080363
 10
403.6281346323042
 20
56.16153212841155
 10
403.2147944292217
 20
56.19347854028927
 10
402.8361495442482
 20
56.24696930494089
 10
402.5087485757967
 20
56.31966661927473
 10
402.246900517232
 20
56.4083932618142
 10
402.0620493852002
 20
56.50927145252168
 10
401.9622740611849
 20
56.61789233039623
 10
401.9519352056208
 20
56.7295086418543
 10
402.0314846761077
 20
56.83924221849074
 10
402.1974457790644
 20
56.94229717644646
 10
402.4425652179222
 20
57.03416951954603
 10
402.7561300969887
 20
57.1108439855435
 10
403.1244361263989
 20
57.16896953234932
 10
403.5313865653372
 20
57.20600579465191
 10
403.9591957268592
 20
57.22033411006881
 10
404.3891662977483
 20
57.21132826246026
 10
404.8025065008308
 20
57.17938185058318
 10
405.1811513858043
 20
57.12589108593091
  0
LWPOLYLINE
  5
3B6
330
70
100
AcDbEntity
  8
0
 62
    18
420
        0
370
    25
100
AcDbPolyline
 90
       18
 70
     0
 43
0.0
 10
406.0985438609269
 20
55.94539502893647
 10
406.0962389677061
 20
55.91999823330672
 10
406.0337533536015
 20
55.81175497428454
 10
405.8883597892994
 20
55.70898295480254
 10
405.6660107044045
 20
55.61588967341231
 10
405.3758090965781
 20
55.53628637999251
 10
405.0296358537417
 20
55.47343204272898
 10
404.6416633491308
 20
55.42989992557378
 10
404.2277752226683
 20
55.40747223851878
 10
403.8049161028823
 20
55.40706717370631
 10
403.3903978918198
 20
55.42870131453833
 10
403.0011910137463
 20
55.47148895674667
 10
402.65322964398
 20
55.53367836923168
 10
402.3607593618819
 20
55.61272351013956
 10
402.1357539351659
 20
55.70538826211473
 10
401.9874251124384
 20
55.8078789193226
 10
401.9218454931292
 20
55.91599950221625
 10
401.9187570691256
 20
55.94539502893647
  0
LWPOLYLINE
  5
3B7
330
70
100
AcDbEntity
  8
0
 62
    18
420
        0
370
    25
100
AcDbPolyline
 90
       15
 70
     0
 43
0.0
 10
402.0206651008224
 20
55.77674186339767
 10
402.0620493851995
 20
55.74268334924646
 10
402.2469005172314
 20
55.64180515853897
 10
402.5087485757967
 20
55.5530785159995
 10
402.8361495442482
 20
55.48038120166567
 10
403.2147944292217
 20
55.42689043701405
 10
403.6281346323042
 20
55.39494402513632
 10
404.0581052031932
 20
55.38593817752841
 10
404.4859143647153
 20
55.40026649294467
 10
404.8928648036542
 20
55.43730275524726
 10
405.2611708330638
 20
55.49542830205371
 10
405.5747357121304
 20
55.57210276805118
 10
405.8198551509881
 20
55.66397511115075
 10
405.9858162539448
 20
55.76703006910584
 10
405.9966358292302
 20
55.77674186339767
  0
SPLINE
  5
3B8
330
70
100
AcDbEntity
  8
0
 62
    18
420
        0
370
    25
100
AcDbSpline
210
0.0
220
0.0
230
1.0
 70
     8
 71
     3
 72
     8
 73
     4
 74
     0
 42
0.0000000001
 43
0.0000000001
 40
0.0
 40
0.0
 40
0.0
 40
0.0
 40
1.0
 40
1.0
 40
1.0
 40
1.0
 10
402.2962220438024
 20
70.82587482944717
 30
0.0
 10
403.2961560942245
 20
70.52871256040726
 30
0.0
 10
404.3556569165811
 20
70.49336658718866
 30
0.0
 10
405.3731728795446
 20
70.72322477053124
 30
0.0
  0
LWPOLYLINE
  5
3B9
330
70
100
AcDbEntity
  8
0
 62
    18
420
        0
370
    25
100
AcDbPolyline
 90
        3
 70
     0
 43
0.0
 10
405.7210788862508
 20
70.82587482944781
 10
405.665172222442
 20
70.80540616809648
 10
405.3731728795446
 20
70.72322477053124
  0
LWPOLYLINE
  5
3BA
330
70
100
AcDbEntity
  8
0
 62
    18
420
        0
370
    25
100
AcDbPolyline
 90
        3
 70
     0
 43
0.0
 10
405.3906667566535
 20
70.69253574781683
 10
405.6779526258365
 20
70.77284438811677
 10
405.7790766908238
 20
70.81086389304997
  0
SPLINE
  5
3BB
330
70
100
AcDbEntity
  8
0
 62
    18
420
        0
370
    25
100
AcDbSpline
210
0.0
220
0.0
230
1.0
 70
     8
 71
     3
 72
     8
 73
     4
 74
     0
 42
0.0000000001
 43
0.0000000001
 40
0.0
 40
0.0
 40
0.0
 40
0.0
 40
1.0
 40
1.0
 40
1.0
 40
1.0
 10
402.2382242392287
 20
70.81086389304997
 30
0.0
 10
403.261484510346
 20
70.50161895578034
 30
0.0
 10
404.3471031884385
 20
70.46086984016601
 30
0.0
 10
405.3906667566542
 20
70.69253574781683
 30
0.0
  0
LWPOLYLINE
  5
3BC
330
70
100
AcDbEntity
  8
0
 62
    18
420
        0
370
    25
100
AcDbPolyline
 90
       13
 70
     0
 43
0.0
 10
405.3906667566535
 20
69.97705351809321
 10
405.0468009781124
 20
69.91335636277653
 10
404.6604331955877
 20
69.86887846146564
 10
404.2473813514922
 20
69.84544074466646
 10
403.8245558368554
 20
69.84400275525833
 10
403.409267177926
 20
69.86462336469718
 10
403.0185173411955
 20
69.9064583628087
 10
402.6683036708901
 20
69.96779501985587
 10
402.37296395582
 20
70.04612220589191
 10
402.1445894386225
 20
70.13823319671729
 10
401.9925297988636
 20
70.24035695754546
 10
401.923010376062
 20
70.34831252960893
 10
401.9187570691256
 20
70.38280430728613
  0
LWPOLYLINE
  5
3BD
330
70
100
AcDbEntity
  8
0
 62
    18
420
        0
370
    25
100
AcDbPolyline
 90
        6
 70
     0
 43
0.0
 10
406.0985438609269
 20
70.38280430728613
 10
406.0970721063074
 20
70.36250811702773
 10
406.0385364732016
 20
70.25411704188424
 10
405.8968970684202
 20
70.15099443850686
 10
405.6779526258365
 20
70.05736215839315
 10
405.3906667566535
 20
69.97705351809321
  0
SPLINE
  5
3BE
330
70
100
AcDbEntity
  8
0
 62
    18
420
        0
370
    25
100
AcDbSpline
210
0.0
220
0.0
230
1.0
 70
     8
 71
     3
 72
     8
 73
     4
 74
     0
 42
0.0000000001
 43
0.0000000001
 40
0.0
 40
0.0
 40
0.0
 40
0.0
 40
1.0
 40
1.0
 40
1.0
 40
1.0
 10
405.3731728795446
 20
69.95663666725666
 30
0.0
 10
405.5987891769584
 20
69.99069078150409
 30
0.0
 10
405.812749761647
 20
70.07906483413345
 30
0.0
 10
405.9966358292302
 20
70.21415114174669
 30
0.0
  0
LWPOLYLINE
  5
3BF
330
70
100
AcDbEntity
  8
0
 62
    18
420
        0
370
    25
100
AcDbPolyline
 90
       11
 70
     0
 43
0.0
 10
402.0206651008224
 20
70.21415114174669
 10
402.1148909788713
 20
70.14516882915159
 10
402.3266419999425
 20
70.04789729292884
 10
402.6119048621107
 20
69.96414601434146
 10
402.9582122094543
 20
69.89757532614773
 10
403.3504287491295
 20
69.85109468686347
 10
403.771412736287
 20
69.82673552346316
 10
404.2027651505832
 20
69.82556244827629
 10
404.6256338216552
 20
69.84762673031799
 10
405.0215373594282
 20
69.89196405458629
 10
405.3731728795446
 20
69.95663666725666
  0
LWPOLYLINE
  5
3C0
330
70
100
AcDbEntity
  8
0
 62
    18
420
        0
370
    25
100
AcDbPolyline
 90
       20
 70
     0
 43
0.0
 10
401.9951781089741
 20
138.3196804206701
 10
401.9416999145598
 20
138.2546740860797
 10
401.9218454931298
 20
138.1453500468685
 10
401.9874251124384
 20
138.0372294639752
 10
402.1357539351659
 20
137.934738806767
 10
402.3607593618826
 20
137.8420740547922
 10
402.65322964398
 20
137.763028913884
 10
403.0011910137469
 20
137.7008395013989
 10
403.3903978918204
 20
137.6580518591906
 10
403.8049161028829
 20
137.6364177183589
 10
404.227775222669
 20
137.6368227831714
 10
404.6416633491308
 20
137.6592504702267
 10
405.0296358537424
 20
137.7027825873816
 10
405.3758090965787
 20
137.7656369246451
 10
405.6660107044051
 20
137.8452402180649
 10
405.8883597892994
 20
137.9383334994548
 10
406.0337533536021
 20
138.0411055189372
 10
406.0962389677067
 20
138.149348777959
 10
406.0732584632307
 20
138.2586317847778
 10
406.0221228210798
 20
138.3196804206701
  0
LWPOLYLINE
  5
3C1
330
70
100
AcDbEntity
  8
0
 62
    18
420
        0
370
    25
100
AcDbPolyline
 90
       31
 70
     0
 43
0.0
 10
405.1811513858043
 20
138.6397594008599
 10
405.5085523542564
 20
138.567062086526
 10
405.7704004128211
 20
138.4783354439872
 10
405.9552515448531
 20
138.3774572532797
 10
406.0550268688683
 20
138.2688363754049
 10
406.0653657244323
 20
138.1572200639465
 10
405.9858162539454
 20
138.04748648731
 10
405.8198551509888
 20
137.9444315293546
 10
405.574735712131
 20
137.8525591862554
 10
405.2611708330638
 20
137.7758847202579
 10
404.8928648036542
 20
137.7177591734515
 10
404.4859143647153
 20
137.6807229111489
 10
404.0581052031939
 20
137.6663945957326
 10
403.6281346323042
 20
137.6754004433408
 10
403.2147944292224
 20
137.7073468552183
 10
402.8361495442489
 20
137.7608376198702
 10
402.5087485757967
 20
137.833534934204
 10
402.246900517232
 20
137.9222615767429
 10
402.0620493852002
 20
138.0231397674503
 10
401.9622740611849
 20
138.1317606453252
 10
401.9519352056208
 20
138.2433769567836
 10
402.0314846761083
 20
138.35311053342
 10
402.197445779065
 20
138.4561654913755
 10
402.4425652179228
 20
138.5480378344747
 10
402.7561300969893
 20
138.6247123004722
 10
403.1244361263989
 20
138.6828378472786
 10
403.5313865653378
 20
138.7198741095812
 10
403.9591957268592
 20
138.7342024249975
 10
404.389166297749
 20
138.7251965773896
 10
404.8025065008308
 20
138.6932501655119
 10
405.1811513858043
 20
138.6397594008599
  0
LWPOLYLINE
  5
3C2
330
70
100
AcDbEntity
  8
0
 62
    18
420
        0
370
    25
100
AcDbPolyline
 90
       18
 70
     0
 43
0.0
 10
406.0985438609275
 20
137.4592633438658
 10
406.0962389677067
 20
137.4338665482354
 10
406.0337533536021
 20
137.3256232892138
 10
405.8883597892994
 20
137.2228512697312
 10
405.6660107044051
 20
137.1297579883413
 10
405.3758090965787
 20
137.0501546949218
 10
405.0296358537417
 20
136.987300357658
 10
404.6416633491308
 20
136.9437682405031
 10
404.227775222669
 20
136.9213405534478
 10
403.8049161028829
 20
136.9209354886356
 10
403.3903978918204
 20
136.9425696294673
 10
403.0011910137469
 20
136.9853572716753
 10
402.65322964398
 20
137.0475466841603
 10
402.3607593618826
 20
137.1265918250685
 10
402.1357539351659
 20
137.2192565770437
 10
401.9874251124384
 20
137.3217472342519
 10
401.9218454931298
 20
137.4298678171452
 10
401.9187570691263
 20
137.4592633438658
  0
LWPOLYLINE
  5
3C3
330
70
100
AcDbEntity
  8
0
 62
    18
420
        0
370
    25
100
AcDbPolyline
 90
       15
 70
     0
 43
0.0
 10
402.020665100823
 20
137.2906101783263
 10
402.0620493852002
 20
137.2565516641754
 10
402.246900517232
 20
137.1556734734676
 10
402.5087485757967
 20
137.0669468309288
 10
402.8361495442489
 20
136.994249516595
 10
403.2147944292224
 20
136.940758751943
 10
403.6281346323042
 20
136.9088123400656
 10
404.0581052031939
 20
136.8998064924574
 10
404.4859143647153
 20
136.914134807874
 10
404.8928648036542
 20
136.9511710701762
 10
405.2611708330638
 20
137.0092966169827
 10
405.574735712131
 20
137.0859710829802
 10
405.8198551509888
 20
137.1778434260794
 10
405.9858162539454
 20
137.2808983840348
 10
405.9966358292308
 20
137.2906101783263
  0
LWPOLYLINE
  5
3C4
330
70
100
AcDbEntity
  8
0
 62
    18
420
        0
370
    25
100
AcDbPolyline
 90
       20
 70
     0
 43
0.0
 10
401.9951781089734
 20
97.56274626320575
 10
401.9416999145591
 20
97.49773992861507
 10
401.9218454931298
 20
97.38841588940424
 10
401.9874251124384
 20
97.2802953065109
 10
402.1357539351659
 20
97.17780464930271
 10
402.3607593618819
 20
97.08513989732786
 10
402.65322964398
 20
97.00609475641966
 10
403.0011910137469
 20
96.94390534393432
 10
403.3903978918204
 20
96.90111770172631
 10
403.8049161028823
 20
96.8794835608946
 10
404.2277752226683
 20
96.87988862570676
 10
404.6416633491308
 20
96.90231631276207
 10
405.0296358537417
 20
96.94584842991694
 10
405.3758090965781
 20
97.00870276718079
 10
405.6660107044045
 20
97.08830606060029
 10
405.8883597892994
 20
97.18139934199051
 10
406.0337533536021
 20
97.28417136147285
 10
406.0962389677067
 20
97.3924146204947
 10
406.0732584632301
 20
97.50169762731349
 10
406.0221228210791
 20
97.56274626320575
  0
LWPOLYLINE
  5
3C5
330
70
100
AcDbEntity
  8
0
 62
    18
420
        0
370
    25
100
AcDbPolyline
 90
       31
 70
     0
 43
0.0
 10
405.1811513858043
 20
97.88282524339557
 10
405.5085523542564
 20
97.81012792906174
 10
405.7704004128211
 20
97.7214012865226
 10
405.9552515448531
 20
97.62052309581511
 10
406.0550268688683
 20
97.51190221794024
 10
406.0653657244317
 20
97.40028590648215
 10
405.9858162539448
 20
97.29055232984572
 10
405.8198551509881
 20
97.18749737189
 10
405.5747357121304
 20
97.09562502879075
 10
405.2611708330638
 20
97.01895056279361
 10
404.8928648036542
 20
96.96082501598716
 10
404.4859143647153
 20
96.92378875368456
 10
404.0581052031939
 20
96.90946043826798
 10
403.6281346323042
 20
96.91846628587621
 10
403.2147944292224
 20
96.95041269775362
 10
402.8361495442482
 20
97.00390346240556
 10
402.5087485757967
 20
97.0766007767394
 10
402.246900517232
 20
97.16532741927855
 10
402.0620493852002
 20
97.26620560998604
 10
401.9622740611849
 20
97.37482648786091
 10
401.9519352056208
 20
97.48644279931898
 10
402.0314846761077
 20
97.59617637595541
 10
402.1974457790644
 20
97.69923133391113
 10
402.4425652179222
 20
97.79110367701038
 10
402.7561300969893
 20
97.86777814300783
 10
403.1244361263989
 20
97.92590368981398
 10
403.5313865653378
 20
97.96293995211657
 10
403.9591957268592
 20
97.97726826753315
 10
404.389166297749
 20
97.96826241992492
 10
404.8025065008308
 20
97.93631600804751
 10
405.1811513858043
 20
97.88282524339557
  0
LWPOLYLINE
  5
3C6
330
70
100
AcDbEntity
  8
0
 62
    18
420
        0
370
    25
100
AcDbPolyline
 90
       18
 70
     0
 43
0.0
 10
406.0985438609269
 20
96.70232918640115
 10
406.0962389677067
 20
96.67693239077108
 10
406.0337533536021
 20
96.56868913174921
 10
405.8883597892994
 20
96.46591711226689
 10
405.6660107044045
 20
96.37282383087699
 10
405.3758090965781
 20
96.29322053745717
 10
405.0296358537417
 20
96.23036620019364
 10
404.6416633491308
 20
96.18683408303844
 10
404.2277752226683
 20
96.16440639598344
 10
403.8049161028823
 20
96.16400133117098
 10
403.3903978918198
 20
96.18563547200267
 10
403.0011910137469
 20
96.22842311421102
 10
402.65322964398
 20
96.29061252669602
 10
402.3607593618819
 20
96.36965766760422
 10
402.1357539351659
 20
96.46232241957907
 10
401.9874251124384
 20
96.56481307678726
 10
401.9218454931292
 20
96.6729336596806
 10
401.9187570691256
 20
96.70232918640115
  0
LWPOLYLINE
  5
3C7
330
70
100
AcDbEntity
  8
0
 62
    18
420
        0
370
    25
100
AcDbPolyline
 90
       15
 70
     0
 43
0.0
 10
402.0206651008224
 20
96.53367602086202
 10
402.0620493852002
 20
96.49961750671081
 10
402.246900517232
 20
96.39873931600332
 10
402.5087485757967
 20
96.31001267346418
 10
402.8361495442482
 20
96.23731535913034
 10
403.2147944292217
 20
96.1838245944784
 10
403.6281346323042
 20
96.15187818260098
 10
404.0581052031939
 20
96.14287233499275
 10
404.4859143647153
 20
96.15720065040934
 10
404.8928648036542
 20
96.19423691271194
 10
405.2611708330638
 20
96.25236245951839
 10
405.5747357121304
 20
96.32903692551552
 10
405.8198551509881
 20
96.42090926861477
 10
405.9858162539448
 20
96.5239642265705
 10
405.9966358292302
 20
96.53367602086202
  0
SPLINE
  5
3C8
330
70
100
AcDbEntity
  8
0
 62
    18
420
        0
370
    25
100
AcDbSpline
210
0.0
220
0.0
230
1.0
 70
     8
 71
     3
 72
     8
 73
     4
 74
     0
 42
0.0000000001
 43
0.0000000001
 40
0.0
 40
0.0
 40
0.0
 40
0.0
 40
1.0
 40
1.0
 40
1.0
 40
1.0
 10
402.2962220438024
 20
111.5828089869118
 30
0.0
 10
403.2961560942251
 20
111.2856467178719
 30
0.0
 10
404.3556569165818
 20
111.250300744653
 30
0.0
 10
405.3731728795453
 20
111.4801589279959
 30
0.0
  0
LWPOLYLINE
  5
3C9
330
70
100
AcDbEntity
  8
0
 62
    18
420
        0
370
    25
100
AcDbPolyline
 90
        3
 70
     0
 43
0.0
 10
405.7210788862508
 20
111.5828089869118
 10
405.6651722224426
 20
111.5623403255611
 10
405.3731728795453
 20
111.4801589279959
  0
LWPOLYLINE
  5
3CA
330
70
100
AcDbEntity
  8
0
 62
    18
420
        0
370
    25
100
AcDbPolyline
 90
        3
 70
     0
 43
0.0
 10
405.3906667566542
 20
111.4494699052811
 10
405.6779526258365
 20
111.5297785455811
 10
405.7790766908245
 20
111.5677980505143
  0
SPLINE
  5
3CB
330
70
100
AcDbEntity
  8
0
 62
    18
420
        0
370
    25
100
AcDbSpline
210
0.0
220
0.0
230
1.0
 70
     8
 71
     3
 72
     8
 73
     4
 74
     0
 42
0.0000000001
 43
0.0000000001
 40
0.0
 40
0.0
 40
0.0
 40
0.0
 40
1.0
 40
1.0
 40
1.0
 40
1.0
 10
402.2382242392293
 20
111.5677980505143
 30
0.0
 10
403.2614845103466
 20
111.2585531132447
 30
0.0
 10
404.3471031884392
 20
111.2178039976307
 30
0.0
 10
405.3906667566542
 20
111.4494699052811
 30
0.0
  0
LWPOLYLINE
  5
3CC
330
70
100
AcDbEntity
  8
0
 62
    18
420
        0
370
    25
100
AcDbPolyline
 90
       13
 70
     0
 43
0.0
 10
405.3906667566542
 20
110.7339876755575
 10
405.0468009781124
 20
110.6702905202408
 10
404.6604331955877
 20
110.62581261893
 10
404.2473813514922
 20
110.6023749021308
 10
403.8245558368561
 20
110.600936912723
 10
403.4092671779267
 20
110.6215575221615
 10
403.0185173411955
 20
110.6633925202733
 10
402.6683036708901
 20
110.7247291773205
 10
402.3729639558206
 20
110.8030563633565
 10
402.1445894386231
 20
110.8951673541819
 10
401.9925297988642
 20
110.9972911150101
 10
401.923010376062
 20
111.1052466870733
 10
401.9187570691256
 20
111.1397384647508
  0
LWPOLYLINE
  5
3CD
330
70
100
AcDbEntity
  8
0
 62
    18
420
        0
370
    25
100
AcDbPolyline
 90
        6
 70
     0
 43
0.0
 10
406.0985438609269
 20
111.1397384647508
 10
406.0970721063074
 20
111.1194422744924
 10
406.0385364732022
 20
111.0110511993489
 10
405.8968970684208
 20
110.9079285959709
 10
405.6779526258365
 20
110.8142963158575
 10
405.3906667566542
 20
110.7339876755575
  0
SPLINE
  5
3CE
330
70
100
AcDbEntity
  8
0
 62
    18
420
        0
370
    25
100
AcDbSpline
210
0.0
220
0.0
230
1.0
 70
     8
 71
     3
 72
     8
 73
     4
 74
     0
 42
0.0000000001
 43
0.0000000001
 40
0.0
 40
0.0
 40
0.0
 40
0.0
 40
1.0
 40
1.0
 40
1.0
 40
1.0
 10
405.3731728795453
 20
110.7135708247207
 30
0.0
 10
405.598789176959
 20
110.7476249389687
 30
0.0
 10
405.8127497616476
 20
110.8359989915978
 30
0.0
 10
405.9966358292308
 20
110.9710852992113
 30
0.0
  0
LWPOLYLINE
  5
3CF
330
70
100
AcDbEntity
  8
0
 62
    18
420
        0
370
    25
100
AcDbPolyline
 90
       11
 70
     0
 43
0.0
 10
402.0206651008224
 20
110.9710852992113
 10
402.1148909788713
 20
110.9021029866162
 10
402.3266419999433
 20
110.8048314503935
 10
402.6119048621107
 20
110.7210801718061
 10
402.958212209455
 20
110.6545094836124
 10
403.3504287491295
 20
110.6080288443278
 10
403.771412736287
 20
110.5836696809275
 10
404.2027651505838
 20
110.5824966057409
 10
404.6256338216558
 20
110.6045608877823
 10
405.0215373594282
 20
110.6488982120506
 10
405.3731728795453
 20
110.7135708247207
  0
LINE
  5
3D0
330
70
100
AcDbEntity
  8
0
 62
    18
420
        0
370
    25
100
AcDbLine
 10
401.9532974921173
 20
96.59996899691783
 30
0.0
 11
401.9532974921173
 21
96.59018463351564
 31
0.0
  0
LINE
  5
3D1
330
70
100
AcDbEntity
  8
0
 62
    18
420
        0
370
    25
100
AcDbLine
 10
401.9532974921173
 20
137.3569031543821
 30
0.0
 11
401.9532974921173
 21
137.34711879098
 31
0.0
  0
LINE
  5
3D2
330
70
100
AcDbEntity
  8
0
 62
    18
420
        0
370
    25
100
AcDbLine
 10
401.9532974921173
 20
55.84303483945349
 30
0.0
 11
401.9532974921173
 21
55.83325047605129
 31
0.0
  0
ENDSEC
  0
SECTION
  2
OBJECTS
  0
DICTIONARY
  5
C
330
0
100
AcDbDictionary
281
     1
  3
ACAD_COLOR
350
63
  3
ACAD_DETAILVIEWSTYLE
350
6A
  3
ACAD_GROUP
350
D
  3
ACAD_LAYOUT
350
62
  3
ACAD_MATERIAL
350
10
  3
ACAD_MLEADERSTYLE
350
66
  3
ACAD_MLINESTYLE
350
5F
  3
ACAD_PLOTSETTINGS
350
61
  3
ACAD_PLOTSTYLENAME
350
E
  3
ACAD_SCALELIST
350
42
  3
ACAD_SECTIONVIEWSTYLE
350
68
  3
ACAD_TABLESTYLE
350
64
  3
ACAD_VISUALSTYLE
350
29
  3
ACDB_RECOMPOSE_DATA
350
3DB
  3
AcDbVariableDictionary
350
3D3
  0
DICTIONARY
  5
63
102
{ACAD_REACTORS
330
C
102
}
330
C
100
AcDbDictionary
281
     1
  0
DICTIONARY
  5
6A
102
{ACAD_REACTORS
330
C
102
}
330
C
100
AcDbDictionary
281
     1
  3
Imperial24
350
6B
  0
DICTIONARY
  5
D
102
{ACAD_REACTORS
330
C
102
}
330
C
100
AcDbDictionary
281
     1
  0
DICTIONARY
  5
62
102
{ACAD_REACTORS
330
C
102
}
330
C
100
AcDbDictionary
281
     1
  3
Layout1
350
6F
  3
Layout2
350
77
  3
Model
350
73
  0
DICTIONARY
  5
10
102
{ACAD_REACTORS
330
C
102
}
330
C
100
AcDbDictionary
281
     1
  3
ByBlock
350
19
  3
ByLayer
350
11
  3
Global
350
21
  0
DICTIONARY
  5
66
102
{ACAD_REACTORS
330
C
102
}
330
C
100
AcDbDictionary
281
     1
  3
Standard
350
67
  0
DICTIONARY
  5
5F
102
{ACAD_REACTORS
330
C
102
}
330
C
100
AcDbDictionary
281
     1
  3
Standard
350
60
  0
DICTIONARY
  5
61
102
{ACAD_REACTORS
330
C
102
}
330
C
100
AcDbDictionary
281
     1
  0
ACDBDICTIONARYWDFLT
  5
E
102
{ACAD_REACTORS
330
C
102
}
330
C
100
AcDbDictionary
281
     1
  3
Normal
350
F
100
AcDbDictionaryWithDefault
340
F
  0
DICTIONARY
  5
42
102
{ACAD_REACTORS
330
C
102
}
330
C
100
AcDbDictionary
281
     1
  3
A0
350
43
  3
A1
350
44
  3
A2
350
45
  3
A3
350
46
  3
A4
350
47
  3
A5
350
48
  3
A6
350
49
  3
A7
350
4A
  3
A8
350
4B
  3
A9
350
4C
  3
B0
350
4D
  3
B1
350
4E
  3
B2
350
4F
  3
B3
350
50
  3
B4
350
51
  3
B5
350
52
  3
B6
350
53
  0
DICTIONARY
  5
68
102
{ACAD_REACTORS
330
C
102
}
330
C
100
AcDbDictionary
281
     1
  3
Imperial24
350
69
  0
DICTIONARY
  5
64
102
{ACAD_REACTORS
330
C
102
}
330
C
100
AcDbDictionary
281
     1
  3
Standard
350
65
  0
DICTIONARY
  5
29
102
{ACAD_REACTORS
330
C
102
}
330
C
100
AcDbDictionary
281
     1
  3
2dWireframe
350
2F
  3
Basic
350
2E
  3
Brighten
350
35
  3
ColorChange
350
39
  3
Conceptual
350
32
  3
Dim
350
34
  3
EdgeColorOff
350
41
  3
Facepattern
350
38
  3
Flat
350
2A
  3
FlatWithEdges
350
2B
  3
Gouraud
350
2C
  3
GouraudWithEdges
350
2D
  3
Hidden
350
31
  3
JitterOff
350
3F
  3
Linepattern
350
37
  3
OverhangOff
350
40
  3
Realistic
350
33
  3
Shaded
350
3E
  3
Shaded with edges
350
3D
  3
Shades of Gray
350
3A
  3
Sketchy
350
3B
  3
Thicken
350
36
  3
Wireframe
350
30
  3
X-Ray
350
3C
  0
XRECORD
  5
3DB
102
{ACAD_REACTORS
330
C
102
}
330
C
100
AcDbXrecord
280
     1
 90
        1
330
65
  0
DICTIONARY
  5
3D3
102
{ACAD_REACTORS
330
C
102
}
330
C
100
AcDbDictionary
281
     1
  3
CANNOSCALE
350
3D8
  3
CMLEADERSTYLE
350
3D5
  3
CTABLESTYLE
350
3D4
  3
CVIEWDETAILSTYLE
350
3D6
  3
CVIEWSECTIONSTYLE
350
3D7
  0
ACDBDETAILVIEWSTYLE
  5
6B
102
{ACAD_REACTORS
330
6A
102
}
330
6A
100
AcDbModelDocViewStyle
 70
     0
  3
Imperial24
290
     1
300
Imperial24
 90
        0
100
AcDbDetailViewStyle
 70
     0
 71
     0
 90
        3
 71
     1
340
55
 62
   256
 40
0.24
340
0
 62
   256
 40
0.24
300

 40
0.36
280
     3
 71
     2
340
5D
 90
       25
 62
   256
 71
     3
340
55
 62
   256
 40
0.24
 90
        1
 40
0.75
 90
        1
300
%<\AcVar ViewType \f "%tc1">% %<\AcVar ViewDetailId>%\PSCALE %<\AcVar ViewScale \f "%sn">%
 71
     4
340
5D
 90
       25
 62
   256
340
5D
 90
       25
 62
   256
280
     0
  0
LAYOUT
  5
6F
102
{ACAD_REACTORS
330
62
102
}
330
62
100
AcDbPlotSettings
  1

  2

  4

  6

 40
0.0
 41
0.0
 42
0.0
 43
0.0
 44
0.0
 45
0.0
 46
0.0
 47
0.0
 48
0.0
 49
0.0
140
0.0
141
0.0
142
1.0
143
1.0
 70
   688
 72
     0
 73
     0
 74
     5
  7

 75
    16
147
1.0
 76
     0
 77
     2
 78
   300
148
0.0
149
0.0
100
AcDbLayout
  1
Layout1
 70
     1
 71
     1
 10
0.0
 20
0.0
 11
12.0
 21
9.0
 12
0.0
 22
0.0
 32
0.0
 14
0.0
 24
0.0
 34
0.0
 15
0.0
 25
0.0
 35
0.0
146
0.0
 13
0.0
 23
0.0
 33
0.0
 16
1.0
 26
0.0
 36
0.0
 17
0.0
 27
1.0
 37
0.0
 76
     0
330
6C
  0
LAYOUT
  5
77
102
{ACAD_REACTORS
330
62
102
}
330
62
100
AcDbPlotSettings
  1

  2

  4

  6

 40
0.0
 41
0.0
 42
0.0
 43
0.0
 44
0.0
 45
0.0
 46
0.0
 47
0.0
 48
0.0
 49
0.0
140
0.0
141
0.0
142
1.0
143
1.0
 70
   688
 72
     0
 73
     0
 74
     5
  7

 75
    16
147
1.0
 76
     0
 77
     2
 78
   300
148
0.0
149
0.0
100
AcDbLayout
  1
Layout2
 70
     1
 71
     2
 10
0.0
 20
0.0
 11
12.0
 21
9.0
 12
0.0
 22
0.0
 32
0.0
 14
0.0
 24
0.0
 34
0.0
 15
0.0
 25
0.0
 35
0.0
146
0.0
 13
0.0
 23
0.0
 33
0.0
 16
1.0
 26
0.0
 36
0.0
 17
0.0
 27
1.0
 37
0.0
 76
     0
330
74
  0
LAYOUT
  5
73
102
{ACAD_REACTORS
330
62
102
}
330
62
100
AcDbPlotSettings
  1

  2

  4

  6

 40
0.0
 41
0.0
 42
0.0
 43
0.0
 44
0.0
 45
0.0
 46
0.0
 47
0.0
 48
0.0
 49
0.0
140
0.0
141
0.0
142
1.0
143
1.0
 70
  1712
 72
     0
 73
     0
 74
     0
  7

 75
     0
147
1.0
 76
     0
 77
     2
 78
   300
148
0.0
149
0.0
100
AcDbLayout
  1
Model
 70
     1
 71
     0
 10
0.0
 20
0.0
 11
12.0
 21
9.0
 12
0.0
 22
0.0
 32
0.0
 14
0.0
 24
0.0
 34
0.0
 15
0.0
 25
0.0
 35
0.0
146
0.0
 13
0.0
 23
0.0
 33
0.0
 16
1.0
 26
0.0
 36
0.0
 17
0.0
 27
1.0
 37
0.0
 76
     0
330
70
  0
MATERIAL
  5
19
102
{ACAD_XDICTIONARY
360
1A
102
}
102
{ACAD_REACTORS
330
10
102
}
330
10
100
AcDbMaterial
  1
ByBlock
 72
     0
 43
0.0208333333333333
 43
0.0
 43
0.0
 43
0.0
 43
0.0
 43
0.0208333333333333
 43
0.0
 43
0.0
 43
0.0
 43
0.0
 43
1.0
 43
0.0
 43
0.0
 43
0.0
 43
0.0
 43
1.0
 77
     0
 47
0.0208333333333333
 47
0.0
 47
0.0
 47
0.0
 47
0.0
 47
0.0208333333333333
 47
0.0
 47
0.0
 47
0.0
 47
0.0
 47
1.0
 47
0.0
 47
0.0
 47
0.0
 47
0.0
 47
1.0
171
     0
 49
0.0208333333333333
 49
0.0
 49
0.0
 49
0.0
 49
0.0
 49
0.0208333333333333
 49
0.0
 49
0.0
 49
0.0
 49
0.0
 49
1.0
 49
0.0
 49
0.0
 49
0.0
 49
0.0
 49
1.0
175
     0
142
0.0208333333333333
142
0.0
142
0.0
142
0.0
142
0.0
142
0.0208333333333333
142
0.0
142
0.0
142
0.0
142
0.0
142
1.0
142
0.0
142
0.0
142
0.0
142
0.0
142
1.0
179
     0
144
0.0208333333333333
144
0.0
144
0.0
144
0.0
144
0.0
144
0.0208333333333333
144
0.0
144
0.0
144
0.0
144
0.0
144
1.0
144
0.0
144
0.0
144
0.0
144
0.0
144
1.0
147
0.0208333333333333
147
0.0
147
0.0
147
0.0
147
0.0
147
0.0208333333333333
147
0.0
147
0.0
147
0.0
147
0.0
147
1.0
147
0.0
147
0.0
147
0.0
147
0.0
147
1.0
  0
MATERIAL
  5
11
102
{ACAD_XDICTIONARY
360
12
102
}
102
{ACAD_REACTORS
330
10
102
}
330
10
100
AcDbMaterial
  1
ByLayer
 72
     0
 43
0.0208333333333333
 43
0.0
 43
0.0
 43
0.0
 43
0.0
 43
0.0208333333333333
 43
0.0
 43
0.0
 43
0.0
 43
0.0
 43
1.0
 43
0.0
 43
0.0
 43
0.0
 43
0.0
 43
1.0
 77
     0
 47
0.0208333333333333
 47
0.0
 47
0.0
 47
0.0
 47
0.0
 47
0.0208333333333333
 47
0.0
 47
0.0
 47
0.0
 47
0.0
 47
1.0
 47
0.0
 47
0.0
 47
0.0
 47
0.0
 47
1.0
171
     0
 49
0.0208333333333333
 49
0.0
 49
0.0
 49
0.0
 49
0.0
 49
0.0208333333333333
 49
0.0
 49
0.0
 49
0.0
 49
0.0
 49
1.0
 49
0.0
 49
0.0
 49
0.0
 49
0.0
 49
1.0
175
     0
142
0.0208333333333333
142
0.0
142
0.0
142
0.0
142
0.0
142
0.0208333333333333
142
0.0
142
0.0
142
0.0
142
0.0
142
1.0
142
0.0
142
0.0
142
0.0
142
0.0
142
1.0
179
     0
144
0.0208333333333333
144
0.0
144
0.0
144
0.0
144
0.0
144
0.0208333333333333
144
0.0
144
0.0
144
0.0
144
0.0
144
1.0
144
0.0
144
0.0
144
0.0
144
0.0
144
1.0
147
0.0208333333333333
147
0.0
147
0.0
147
0.0
147
0.0
147
0.0208333333333333
147
0.0
147
0.0
147
0.0
147
0.0
147
1.0
147
0.0
147
0.0
147
0.0
147
0.0
147
1.0
  0
MATERIAL
  5
21
102
{ACAD_XDICTIONARY
360
22
102
}
102
{ACAD_REACTORS
330
10
102
}
330
10
100
AcDbMaterial
  1
Global
 72
     0
 43
0.0208333333333333
 43
0.0
 43
0.0
 43
0.0
 43
0.0
 43
0.0208333333333333
 43
0.0
 43
0.0
 43
0.0
 43
0.0
 43
1.0
 43
0.0
 43
0.0
 43
0.0
 43
0.0
 43
1.0
 77
     0
 47
0.0208333333333333
 47
0.0
 47
0.0
 47
0.0
 47
0.0
 47
0.0208333333333333
 47
0.0
 47
0.0
 47
0.0
 47
0.0
 47
1.0
 47
0.0
 47
0.0
 47
0.0
 47
0.0
 47
1.0
171
     0
 49
0.0208333333333333
 49
0.0
 49
0.0
 49
0.0
 49
0.0
 49
0.0208333333333333
 49
0.0
 49
0.0
 49
0.0
 49
0.0
 49
1.0
 49
0.0
 49
0.0
 49
0.0
 49
0.0
 49
1.0
175
     0
142
0.0208333333333333
142
0.0
142
0.0
142
0.0
142
0.0
142
0.0208333333333333
142
0.0
142
0.0
142
0.0
142
0.0
142
1.0
142
0.0
142
0.0
142
0.0
142
0.0
142
1.0
179
     0
144
0.0208333333333333
144
0.0
144
0.0
144
0.0
144
0.0
144
0.0208333333333333
144
0.0
144
0.0
144
0.0
144
0.0
144
1.0
144
0.0
144
0.0
144
0.0
144
0.0
144
1.0
147
0.0208333333333333
147
0.0
147
0.0
147
0.0
147
0.0
147
0.0208333333333333
147
0.0
147
0.0
147
0.0
147
0.0
147
1.0
147
0.0
147
0.0
147
0.0
147
0.0
147
1.0
  0
MLEADERSTYLE
  5
67
102
{ACAD_REACTORS
330
66
102
}
330
66
100
AcDbMLeaderStyle
179
     2
170
     2
171
     1
172
     0
 90
        2
 40
0.0
 41
0.0
173
     1
 91
-1056964608
340
5B
 92
       -2
290
     1
 42
0.09
291
     1
 43
0.36
  3
Standard
 44
0.18
300

342
55
174
     1
178
     6
175
     1
176
     0
 93
-1056964608
 45
0.18
292
     0
297
     0
 46
0.18
 94
-1056964608
 47
1.0
 49
1.0
140
1.0
293
     1
141
0.0
294
     1
177
     0
142
1.0
295
     1
296
     0
143
0.125
271
     0
272
     9
273
     9
298
     1
  0
MLINESTYLE
  5
60
102
{ACAD_REACTORS
330
5F
102
}
330
5F
100
AcDbMlineStyle
  2
STANDARD
 70
     0
  3

 62
   256
 51
90.0
 52
90.0
 71
     2
 49
0.5
 62
   256
  6
BYLAYER
 49
-0.5
 62
   256
  6
BYLAYER
  0
ACDBPLACEHOLDER
  5
F
102
{ACAD_REACTORS
330
E
102
}
330
E
  0
SCALE
  5
43
102
{ACAD_REACTORS
330
42
102
}
330
42
100
AcDbScale
 70
     0
300
1:1
140
1.0
141
1.0
290
     1
  0
SCALE
  5
44
102
{ACAD_REACTORS
330
42
102
}
330
42
100
AcDbScale
 70
     0
300
1/128" = 1'-0"
140
0.0078125
141
12.0
290
     0
  0
SCALE
  5
45
102
{ACAD_REACTORS
330
42
102
}
330
42
100
AcDbScale
 70
     0
300
1/64" = 1'-0"
140
0.015625
141
12.0
290
     0
  0
SCALE
  5
46
102
{ACAD_REACTORS
330
42
102
}
330
42
100
AcDbScale
 70
     0
300
1/32" = 1'-0"
140
0.03125
141
12.0
290
     0
  0
SCALE
  5
47
102
{ACAD_REACTORS
330
42
102
}
330
42
100
AcDbScale
 70
     0
300
1/16" = 1'-0"
140
0.0625
141
12.0
290
     0
  0
SCALE
  5
48
102
{ACAD_REACTORS
330
42
102
}
330
42
100
AcDbScale
 70
     0
300
3/32" = 1'-0"
140
0.09375
141
12.0
290
     0
  0
SCALE
  5
49
102
{ACAD_REACTORS
330
42
102
}
330
42
100
AcDbScale
 70
     0
300
1/8" = 1'-0"
140
0.125
141
12.0
290
     0
  0
SCALE
  5
4A
102
{ACAD_REACTORS
330
42
102
}
330
42
100
AcDbScale
 70
     0
300
3/16" = 1'-0"
140
0.1875
141
12.0
290
     0
  0
SCALE
  5
4B
102
{ACAD_REACTORS
330
42
102
}
330
42
100
AcDbScale
 70
     0
300
1/4" = 1'-0"
140
0.25
141
12.0
290
     0
  0
SCALE
  5
4C
102
{ACAD_REACTORS
330
42
102
}
330
42
100
AcDbScale
 70
     0
300
3/8" = 1'-0"
140
0.375
141
12.0
290
     0
  0
SCALE
  5
4D
102
{ACAD_REACTORS
330
42
102
}
330
42
100
AcDbScale
 70
     0
300
1/2" = 1'-0"
140
0.5
141
12.0
290
     0
  0
SCALE
  5
4E
102
{ACAD_REACTORS
330
42
102
}
330
42
100
AcDbScale
 70
     0
300
3/4" = 1'-0"
140
0.75
141
12.0
290
     0
  0
SCALE
  5
4F
102
{ACAD_REACTORS
330
42
102
}
330
42
100
AcDbScale
 70
     0
300
1" = 1'-0"
140
1.0
141
12.0
290
     0
  0
SCALE
  5
50
102
{ACAD_REACTORS
330
42
102
}
330
42
100
AcDbScale
 70
     0
300
1-1/2" = 1'-0"
140
1.5
141
12.0
290
     0
  0
SCALE
  5
51
102
{ACAD_REACTORS
330
42
102
}
330
42
100
AcDbScale
 70
     0
300
3" = 1'-0"
140
3.0
141
12.0
290
     0
  0
SCALE
  5
52
102
{ACAD_REACTORS
330
42
102
}
330
42
100
AcDbScale
 70
     0
300
6" = 1'-0"
140
6.0
141
12.0
290
     0
  0
SCALE
  5
53
102
{ACAD_REACTORS
330
42
102
}
330
42
100
AcDbScale
 70
     0
300
1'-0" = 1'-0"
140
12.0
141
12.0
290
     0
  0
ACDBSECTIONVIEWSTYLE
  5
69
102
{ACAD_REACTORS
330
68
102
}
330
68
100
AcDbModelDocViewStyle
 70
     0
  3
Imperial24
290
     1
300
Imperial24
 90
        0
100
AcDbSectionViewStyle
 70
     0
 71
     0
 90
       78
 71
     1
340
55
 62
   256
 40
0.24
340
0
340
0
 62
   256
 40
0.24
300
I, O, Q, S, X, Z
 40
0.48
 90
        3
 40
0.18
 90
        1
 71
     2
340
5D
 90
       25
 62
   256
340
5D
 90
       50
 62
   256
 40
0.24
 40
0.0
 40
0.24
 71
     3
340
55
 62
   256
 40
0.24
 90
        1
 40
0.75
 90
        1
300
%<\AcVar ViewType \f "%tc1">% %<\AcVar ViewSectionStartId>%-%<\AcVar ViewSectionEndId>%\PSCALE %<\AcVar ViewScale \f "%sn">%
 71
     4
 62
   256
 62
   257
300
ANSI31
 40
1.0
 90
        0
290
     0
290
     0
 90
        6
 40
0.0
 40
1.570796326794896
 40
0.2617993877991494
 40
1.308996938995747
 40
-0.2617993877991494
 40
1.832595714594046
  0
TABLESTYLE
  5
65
102
{ACAD_XDICTIONARY
360
3D9
102
}
102
{ACAD_REACTORS
330
64
102
}
330
64
100
AcDbTableStyle
280
     0
  3
Standard
 70
     0
 71
     0
 40
0.06
 41
0.06
280
     0
281
     0
  7
Standard
140
0.18
170
     2
 62
     0
 63
     7
283
     0
 90
      512
 91
        0
  1

274
    -2
284
     1
 64
     0
275
    -2
285
     1
 65
     0
276
    -2
286
     1
 66
     0
277
    -2
287
     1
 67
     0
278
    -2
288
     1
 68
     0
279
    -2
289
     1
 69
     0
  7
Standard
140
0.25
170
     5
 62
     0
 63
     7
283
     0
 90
      512
 91
        0
  1

274
    -2
284
     1
 64
     0
275
    -2
285
     1
 65
     0
276
    -2
286
     1
 66
     0
277
    -2
287
     1
 67
     0
278
    -2
288
     1
 68
     0
279
    -2
289
     1
 69
     0
  7
Standard
140
0.18
170
     5
 62
     0
 63
     7
283
     0
 90
      512
 91
        0
  1

274
    -2
284
     1
 64
     0
275
    -2
285
     1
 65
     0
276
    -2
286
     1
 66
     0
277
    -2
287
     1
 67
     0
278
    -2
288
     1
 68
     0
279
    -2
289
     1
 69
     0
  0
VISUALSTYLE
  5
2F
102
{ACAD_REACTORS
330
29
102
}
330
29
100
AcDbVisualStyle
  2
2dWireframe
 70
     4
177
     3
291
     0
 70
    58
 90
        0
176
     1
 90
        2
176
     1
 90
        0
176
     1
 90
        0
176
     1
 40
0.6
176
     1
 40
30.0
176
     1
 62
     7
420
 16777215
176
     1
 90
        1
176
     1
 90
        4
176
     1
 62
     7
176
     1
 62
   257
176
     1
 90
        1
176
     1
 90
        1
176
     1
 40
1.0
176
     1
 90
        0
176
     1
 62
   257
176
     1
 40
1.0
176
     1
 90
        1
176
     1
 90
        6
176
     1
 90
        2
176
     1
 62
     7
176
     1
 90
        5
176
     1
 90
        0
176
     1
 90
        0
176
     1
290
     0
176
     1
 90
        1
176
     1
 40
0.0
176
     1
 90
        0
176
     1
290
     1
176
     1
290
     1
176
     1
290
     0
176
     1
290
     0
176
     1
290
     0
176
     1
290
     0
176
     1
290
     0
176
     1
290
     0
176
     1
290
     0
176
     1
 90
       50
176
     1
 40
0.0
176
     1
 40
1.0
176
     1
 90
        0
176
     1
 62
    18
420
        0
176
     1
 90
       50
176
     1
 90
        3
176
     1
 62
     5
420
      255
176
     1
290
     0
176
     1
 90
       50
176
     1
 90
       50
176
     1
 90
       50
176
     1
290
     0
176
     1
 90
       50
176
     1
 62
   256
176
     0
 40
1.0
176
     0
 90
        2
176
     1
  1
strokes_ogs.tif
176
     1
290
     0
176
     1
 40
1.0
176
     1
 40
1.0
176
     1
  0
VISUALSTYLE
  5
2E
102
{ACAD_REACTORS
330
29
102
}
330
29
100
AcDbVisualStyle
  2
Basic
 70
     7
177
     3
291
     1
 70
    58
 90
        1
176
     1
 90
        0
176
     1
 90
        1
176
     1
 90
        0
176
     1
 40
0.6
176
     1
 40
30.0
176
     1
 62
     7
420
 16777215
176
     1
 90
        0
176
     1
 90
        4
176
     1
 62
     7
176
     1
 62
   257
176
     1
 90
        1
176
     1
 90
        1
176
     1
 40
1.0
176
     1
 90
        8
176
     1
 62
     7
176
     1
 40
1.0
176
     1
 90
        1
176
     1
 90
        6
176
     1
 90
        2
176
     1
 62
     7
176
     1
 90
        5
176
     1
 90
        0
176
     1
 90
        0
176
     1
290
     0
176
     1
 90
        1
176
     1
 40
0.0
176
     1
 90
        0
176
     1
290
     0
176
     1
290
     1
176
     1
290
     1
176
     1
290
     0
176
     1
290
     0
176
     1
290
     0
176
     1
290
     0
176
     1
290
     0
176
     1
290
     0
176
     1
 90
       50
176
     1
 40
0.0
176
     1
 40
1.0
176
     1
 90
        0
176
     1
 62
    18
420
        0
176
     1
 90
       50
176
     1
 90
        3
176
     1
 62
     5
420
      255
176
     1
290
     0
176
     1
 90
       50
176
     1
 90
       50
176
     1
 90
       50
176
     1
290
     0
176
     1
 90
       50
176
     1
 62
   256
176
     0
 40
1.0
176
     0
 90
        2
176
     1
  1
strokes_ogs.tif
176
     1
290
     0
176
     1
 40
1.0
176
     1
 40
1.0
176
     1
  0
VISUALSTYLE
  5
35
102
{ACAD_REACTORS
330
29
102
}
330
29
100
AcDbVisualStyle
  2
Brighten
 70
    12
177
     3
291
     1
 70
    58
 90
        2
176
     1
 90
        2
176
     1
 90
        0
176
     1
 90
        0
176
     1
 40
0.6
176
     1
 40
30.0
176
     1
 62
     7
420
 16777215
176
     1
 90
        1
176
     1
 90
        4
176
     1
 62
     7
176
     1
 62
   257
176
     1
 90
        1
176
     1
 90
        1
176
     1
 40
1.0
176
     1
 90
        8
176
     1
 62
     7
176
     1
 40
1.0
176
     1
 90
        1
176
     1
 90
        6
176
     1
 90
        2
176
     1
 62
     7
176
     1
 90
        5
176
     1
 90
        0
176
     1
 90
        0
176
     1
290
     0
176
     1
 90
        1
176
     1
 40
50.0
176
     1
 90
        0
176
     1
290
     0
176
     1
290
     1
176
     1
290
     1
176
     1
290
     0
176
     1
290
     0
176
     1
290
     0
176
     1
290
     0
176
     1
290
     0
176
     1
290
     0
176
     1
 90
       50
176
     1
 40
0.0
176
     1
 40
1.0
176
     1
 90
        0
176
     1
 62
    18
420
        0
176
     1
 90
       50
176
     1
 90
        3
176
     1
 62
     5
420
      255
176
     1
290
     0
176
     1
 90
       50
176
     1
 90
       50
176
     1
 90
       50
176
     1
290
     0
176
     1
 90
       50
176
     1
 62
   256
176
     0
 40
1.0
176
     0
 90
        2
176
     1
  1
strokes_ogs.tif
176
     1
290
     0
176
     1
 40
1.0
176
     1
 40
1.0
176
     1
  0
VISUALSTYLE
  5
39
102
{ACAD_REACTORS
330
29
102
}
330
29
100
AcDbVisualStyle
  2
ColorChange
 70
    16
177
     3
291
     1
 70
    58
 90
        2
176
     1
 90
        2
176
     1
 90
        3
176
     1
 90
        0
176
     1
 40
0.6
176
     1
 40
30.0
176
     1
 62
     8
420
  8421504
176
     1
 90
        1
176
     1
 90
        4
176
     1
 62
     7
176
     1
 62
   257
176
     1
 90
        1
176
     1
 90
        1
176
     1
 40
1.0
176
     1
 90
        8
176
     1
 62
     8
420
  8421504
176
     1
 40
1.0
176
     1
 90
        1
176
     1
 90
        6
176
     1
 90
        2
176
     1
 62
     7
176
     1
 90
        5
176
     1
 90
        0
176
     1
 90
        0
176
     1
290
     0
176
     1
 90
        1
176
     1
 40
0.0
176
     1
 90
        0
176
     1
290
     0
176
     1
290
     1
176
     1
290
     1
176
     1
290
     0
176
     1
290
     0
176
     1
290
     0
176
     1
290
     0
176
     1
290
     0
176
     1
290
     0
176
     1
 90
       50
176
     1
 40
0.0
176
     1
 40
1.0
176
     1
 90
        0
176
     1
 62
    18
420
        0
176
     1
 90
       50
176
     1
 90
        3
176
     1
 62
     5
420
      255
176
     1
290
     0
176
     1
 90
       50
176
     1
 90
       50
176
     1
 90
       50
176
     1
290
     0
176
     1
 90
       50
176
     1
 62
   256
176
     0
 40
1.0
176
     0
 90
        2
176
     1
  1
strokes_ogs.tif
176
     1
290
     0
176
     1
 40
1.0
176
     1
 40
1.0
176
     1
  0
VISUALSTYLE
  5
32
102
{ACAD_REACTORS
330
29
102
}
330
29
100
AcDbVisualStyle
  2
Conceptual
 70
     9
177
     3
291
     0
 70
    58
 90
        3
176
     1
 90
        2
176
     1
 90
        0
176
     1
 90
        0
176
     1
 40
0.6
176
     1
 40
30.0
176
     1
 62
     7
420
 16777215
176
     1
 90
        2
176
     1
 90
        2
176
     1
 62
     7
176
     1
 62
   257
176
     1
 90
        1
176
     1
 90
        1
176
     1
 40
179.0
176
     1
 90
        8
176
     1
 62
     7
176
     1
 40
1.0
176
     1
 90
        1
176
     1
 90
        6
176
     1
 90
        2
176
     1
 62
     7
176
     1
 90
        3
176
     1
 90
        0
176
     1
 90
        0
176
     1
290
     0
176
     1
 90
        1
176
     1
 40
0.0
176
     1
 90
        0
176
     1
290
     0
176
     1
290
     1
176
     1
290
     1
176
     1
290
     0
176
     1
290
     0
176
     1
290
     0
176
     1
290
     0
176
     1
290
     0
176
     1
290
     0
176
     1
 90
       50
176
     1
 40
0.0
176
     1
 40
1.0
176
     1
 90
        0
176
     1
 62
    18
420
        0
176
     1
 90
       50
176
     1
 90
        3
176
     1
 62
     5
420
      255
176
     1
290
     0
176
     1
 90
       50
176
     1
 90
       50
176
     1
 90
       50
176
     1
290
     0
176
     1
 90
       50
176
     1
 62
   256
176
     0
 40
1.0
176
     0
 90
        2
176
     1
  1
strokes_ogs.tif
176
     1
290
     0
176
     1
 40
1.0
176
     1
 40
1.0
176
     1
  0
VISUALSTYLE
  5
34
102
{ACAD_REACTORS
330
29
102
}
330
29
100
AcDbVisualStyle
  2
Dim
 70
    11
177
     3
291
     1
 70
    58
 90
        2
176
     1
 90
        2
176
     1
 90
        0
176
     1
 90
        0
176
     1
 40
0.6
176
     1
 40
30.0
176
     1
 62
     7
420
 16777215
176
     1
 90
        1
176
     1
 90
        4
176
     1
 62
     7
176
     1
 62
   257
176
     1
 90
        1
176
     1
 90
        1
176
     1
 40
1.0
176
     1
 90
        8
176
     1
 62
     7
176
     1
 40
1.0
176
     1
 90
        1
176
     1
 90
        6
176
     1
 90
        2
176
     1
 62
     7
176
     1
 90
        5
176
     1
 90
        0
176
     1
 90
        0
176
     1
290
     0
176
     1
 90
        1
176
     1
 40
-50.0
176
     1
 90
        0
176
     1
290
     0
176
     1
290
     1
176
     1
290
     1
176
     1
290
     0
176
     1
290
     0
176
     1
290
     0
176
     1
290
     0
176
     1
290
     0
176
     1
290
     0
176
     1
 90
       50
176
     1
 40
0.0
176
     1
 40
1.0
176
     1
 90
        0
176
     1
 62
    18
420
        0
176
     1
 90
       50
176
     1
 90
        3
176
     1
 62
     5
420
      255
176
     1
290
     0
176
     1
 90
       50
176
     1
 90
       50
176
     1
 90
       50
176
     1
290
     0
176
     1
 90
       50
176
     1
 62
   256
176
     0
 40
1.0
176
     0
 90
        2
176
     1
  1
strokes_ogs.tif
176
     1
290
     0
176
     1
 40
1.0
176
     1
 40
1.0
176
     1
  0
VISUALSTYLE
  5
41
102
{ACAD_REACTORS
330
29
102
}
330
29
100
AcDbVisualStyle
  2
EdgeColorOff
 70
    22
177
     3
291
     1
 70
    58
 90
        2
176
     0
 90
        2
176
     0
 90
        0
176
     0
 90
        0
176
     0
 40
0.6
176
     0
 40
30.0
176
     0
 62
     7
420
 16777215
176
     0
 90
        1
176
     0
 90
        4
176
     0
 62
     7
176
     0
 62
   257
176
     0
 90
        1
176
     0
 90
        1
176
     0
 40
1.0
176
     0
 90
        8
176
     2
 62
     7
176
     0
 40
1.0
176
     0
 90
        1
176
     0
 90
        6
176
     0
 90
        2
176
     0
 62
     7
176
     0
 90
        5
176
     0
 90
        0
176
     0
 90
        0
176
     0
290
     0
176
     0
 90
        1
176
     0
 40
0.0
176
     0
 90
        0
176
     0
290
     0
176
     0
290
     1
176
     0
290
     1
176
     0
290
     0
176
     0
290
     0
176
     0
290
     0
176
     0
290
     0
176
     0
290
     0
176
     0
290
     0
176
     0
 90
       50
176
     0
 40
0.0
176
     0
 40
1.0
176
     0
 90
        0
176
     0
 62
    18
420
        0
176
     0
 90
       50
176
     0
 90
        3
176
     0
 62
     5
420
      255
176
     0
290
     0
176
     0
 90
       50
176
     0
 90
       50
176
     0
 90
       50
176
     0
290
     0
176
     0
 90
       50
176
     0
 62
   256
176
     0
 40
1.0
176
     0
 90
        2
176
     0
  1
strokes_ogs.tif
176
     0
290
     0
176
     0
 40
1.0
176
     0
 40
1.0
176
     0
  0
VISUALSTYLE
  5
38
102
{ACAD_REACTORS
330
29
102
}
330
29
100
AcDbVisualStyle
  2
Facepattern
 70
    15
177
     3
291
     1
 70
    58
 90
        2
176
     1
 90
        2
176
     1
 90
        0
176
     1
 90
        0
176
     1
 40
0.6
176
     1
 40
30.0
176
     1
 62
     7
420
 16777215
176
     1
 90
        1
176
     1
 90
        4
176
     1
 62
     7
176
     1
 62
   257
176
     1
 90
        1
176
     1
 90
        1
176
     1
 40
1.0
176
     1
 90
        8
176
     1
 62
     7
176
     1
 40
1.0
176
     1
 90
        1
176
     1
 90
        6
176
     1
 90
        2
176
     1
 62
     7
176
     1
 90
        5
176
     1
 90
        0
176
     1
 90
        0
176
     1
290
     0
176
     1
 90
        1
176
     1
 40
0.0
176
     1
 90
        0
176
     1
290
     0
176
     1
290
     1
176
     1
290
     1
176
     1
290
     0
176
     1
290
     0
176
     1
290
     0
176
     1
290
     0
176
     1
290
     0
176
     1
290
     0
176
     1
 90
       50
176
     1
 40
0.0
176
     1
 40
1.0
176
     1
 90
        0
176
     1
 62
    18
420
        0
176
     1
 90
       50
176
     1
 90
        3
176
     1
 62
     5
420
      255
176
     1
290
     0
176
     1
 90
       50
176
     1
 90
       50
176
     1
 90
       50
176
     1
290
     0
176
     1
 90
       50
176
     1
 62
   256
176
     0
 40
1.0
176
     0
 90
        2
176
     1
  1
strokes_ogs.tif
176
     1
290
     0
176
     1
 40
1.0
176
     1
 40
1.0
176
     1
  0
VISUALSTYLE
  5
2A
102
{ACAD_REACTORS
330
29
102
}
330
29
100
AcDbVisualStyle
  2
Flat
 70
     0
177
     3
291
     1
 70
    58
 90
        2
176
     1
 90
        1
176
     1
 90
        1
176
     1
 90
        2
176
     1
 40
0.6
176
     1
 40
30.0
176
     1
 62
     7
420
 16777215
176
     1
 90
        0
176
     1
 90
        0
176
     1
 62
     7
176
     1
 62
   257
176
     1
 90
        1
176
     1
 90
        1
176
     1
 40
1.0
176
     1
 90
        8
176
     1
 62
     7
176
     1
 40
1.0
176
     1
 90
        1
176
     1
 90
        6
176
     1
 90
        2
176
     1
 62
     7
176
     1
 90
        5
176
     1
 90
        0
176
     1
 90
        0
176
     1
290
     0
176
     1
 90
       13
176
     1
 40
0.0
176
     1
 90
        0
176
     1
290
     0
176
     1
290
     1
176
     1
290
     1
176
     1
290
     0
176
     1
290
     0
176
     1
290
     0
176
     1
290
     0
176
     1
290
     0
176
     1
290
     0
176
     1
 90
       50
176
     1
 40
0.0
176
     1
 40
1.0
176
     1
 90
        0
176
     1
 62
    18
420
        0
176
     1
 90
       50
176
     1
 90
        3
176
     1
 62
     5
420
      255
176
     1
290
     0
176
     1
 90
       50
176
     1
 90
       50
176
     1
 90
       50
176
     1
290
     0
176
     1
 90
       50
176
     1
 62
   256
176
     0
 40
1.0
176
     0
 90
        2
176
     1
  1
strokes_ogs.tif
176
     1
290
     0
176
     1
 40
1.0
176
     1
 40
1.0
176
     1
  0
VISUALSTYLE
  5
2B
102
{ACAD_REACTORS
330
29
102
}
330
29
100
AcDbVisualStyle
  2
FlatWithEdges
 70
     1
177
     3
291
     1
 70
    58
 90
        2
176
     1
 90
        1
176
     1
 90
        1
176
     1
 90
        2
176
     1
 40
0.6
176
     1
 40
30.0
176
     1
 62
     7
420
 16777215
176
     1
 90
        1
176
     1
 90
        0
176
     1
 62
     7
176
     1
 62
   257
176
     1
 90
        1
176
     1
 90
        1
176
     1
 40
1.0
176
     1
 90
        0
176
     1
 62
   257
176
     1
 40
1.0
176
     1
 90
        1
176
     1
 90
        6
176
     1
 90
        2
176
     1
 62
     7
176
     1
 90
        5
176
     1
 90
        0
176
     1
 90
        0
176
     1
290
     0
176
     1
 90
       13
176
     1
 40
0.0
176
     1
 90
        0
176
     1
290
     0
176
     1
290
     1
176
     1
290
     1
176
     1
290
     0
176
     1
290
     0
176
     1
290
     0
176
     1
290
     0
176
     1
290
     0
176
     1
290
     0
176
     1
 90
       50
176
     1
 40
0.0
176
     1
 40
1.0
176
     1
 90
        0
176
     1
 62
    18
420
        0
176
     1
 90
       50
176
     1
 90
        3
176
     1
 62
     5
420
      255
176
     1
290
     0
176
     1
 90
       50
176
     1
 90
       50
176
     1
 90
       50
176
     1
290
     0
176
     1
 90
       50
176
     1
 62
   256
176
     0
 40
1.0
176
     0
 90
        2
176
     1
  1
strokes_ogs.tif
176
     1
290
     0
176
     1
 40
1.0
176
     1
 40
1.0
176
     1
  0
VISUALSTYLE
  5
2C
102
{ACAD_REACTORS
330
29
102
}
330
29
100
AcDbVisualStyle
  2
Gouraud
 70
     2
177
     3
291
     1
 70
    58
 90
        2
176
     1
 90
        2
176
     1
 90
        1
176
     1
 90
        2
176
     1
 40
0.6
176
     1
 40
30.0
176
     1
 62
     7
420
 16777215
176
     1
 90
        0
176
     1
 90
        0
176
     1
 62
     7
176
     1
 62
   257
176
     1
 90
        1
176
     1
 90
        1
176
     1
 40
1.0
176
     1
 90
        0
176
     1
 62
     7
176
     1
 40
1.0
176
     1
 90
        1
176
     1
 90
        6
176
     1
 90
        2
176
     1
 62
     7
176
     1
 90
        5
176
     1
 90
        0
176
     1
 90
        0
176
     1
290
     0
176
     1
 90
       13
176
     1
 40
0.0
176
     1
 90
        0
176
     1
290
     0
176
     1
290
     1
176
     1
290
     1
176
     1
290
     0
176
     1
290
     0
176
     1
290
     0
176
     1
290
     0
176
     1
290
     0
176
     1
290
     0
176
     1
 90
       50
176
     1
 40
0.0
176
     1
 40
1.0
176
     1
 90
        0
176
     1
 62
    18
420
        0
176
     1
 90
       50
176
     1
 90
        3
176
     1
 62
     5
420
      255
176
     1
290
     0
176
     1
 90
       50
176
     1
 90
       50
176
     1
 90
       50
176
     1
290
     0
176
     1
 90
       50
176
     1
 62
   256
176
     0
 40
1.0
176
     0
 90
        2
176
     1
  1
strokes_ogs.tif
176
     1
290
     0
176
     1
 40
1.0
176
     1
 40
1.0
176
     1
  0
VISUALSTYLE
  5
2D
102
{ACAD_REACTORS
330
29
102
}
330
29
100
AcDbVisualStyle
  2
GouraudWithEdges
 70
     3
177
     3
291
     1
 70
    58
 90
        2
176
     1
 90
        2
176
     1
 90
        1
176
     1
 90
        2
176
     1
 40
0.6
176
     1
 40
30.0
176
     1
 62
     7
420
 16777215
176
     1
 90
        1
176
     1
 90
        0
176
     1
 62
     7
176
     1
 62
   257
176
     1
 90
        1
176
     1
 90
        1
176
     1
 40
1.0
176
     1
 90
        0
176
     1
 62
   257
176
     1
 40
1.0
176
     1
 90
        1
176
     1
 90
        6
176
     1
 90
        2
176
     1
 62
     7
176
     1
 90
        5
176
     1
 90
        0
176
     1
 90
        0
176
     1
290
     0
176
     1
 90
       13
176
     1
 40
0.0
176
     1
 90
        0
176
     1
290
     0
176
     1
290
     1
176
     1
290
     1
176
     1
290
     0
176
     1
290
     0
176
     1
290
     0
176
     1
290
     0
176
     1
290
     0
176
     1
290
     0
176
     1
 90
       50
176
     1
 40
0.0
176
     1
 40
1.0
176
     1
 90
        0
176
     1
 62
    18
420
        0
176
     1
 90
       50
176
     1
 90
        3
176
     1
 62
     5
420
      255
176
     1
290
     0
176
     1
 90
       50
176
     1
 90
       50
176
     1
 90
       50
176
     1
290
     0
176
     1
 90
       50
176
     1
 62
   256
176
     0
 40
1.0
176
     0
 90
        2
176
     1
  1
strokes_ogs.tif
176
     1
290
     0
176
     1
 40
1.0
176
     1
 40
1.0
176
     1
  0
VISUALSTYLE
  5
31
102
{ACAD_REACTORS
330
29
102
}
330
29
100
AcDbVisualStyle
  2
Hidden
 70
     6
177
     3
291
     0
 70
    58
 90
        1
176
     1
 90
        2
176
     1
 90
        2
176
     1
 90
        0
176
     1
 40
0.6
176
     1
 40
30.0
176
     1
 62
     7
420
 16777215
176
     1
 90
        2
176
     1
 90
        2
176
     1
 62
     7
176
     1
 62
   257
176
     1
 90
        2
176
     1
 90
        1
176
     1
 40
40.0
176
     1
 90
        0
176
     1
 62
   257
176
     1
 40
1.0
176
     1
 90
        1
176
     1
 90
        6
176
     1
 90
        2
176
     1
 62
     7
176
     1
 90
        3
176
     1
 90
        0
176
     1
 90
        0
176
     1
290
     0
176
     1
 90
        1
176
     1
 40
0.0
176
     1
 90
        0
176
     1
290
     0
176
     1
290
     1
176
     1
290
     1
176
     1
290
     0
176
     1
290
     0
176
     1
290
     0
176
     1
290
     0
176
     1
290
     0
176
     1
290
     0
176
     1
 90
       50
176
     1
 40
0.0
176
     1
 40
1.0
176
     1
 90
        0
176
     1
 62
    18
420
        0
176
     1
 90
       50
176
     1
 90
        3
176
     1
 62
     5
420
      255
176
     1
290
     0
176
     1
 90
       50
176
     1
 90
       50
176
     1
 90
       50
176
     1
290
     0
176
     1
 90
       50
176
     1
 62
   256
176
     0
 40
1.0
176
     0
 90
        2
176
     1
  1
strokes_ogs.tif
176
     1
290
     0
176
     1
 40
1.0
176
     1
 40
1.0
176
     1
  0
VISUALSTYLE
  5
3F
102
{ACAD_REACTORS
330
29
102
}
330
29
100
AcDbVisualStyle
  2
JitterOff
 70
    20
177
     3
291
     1
 70
    58
 90
        2
176
     0
 90
        2
176
     0
 90
        0
176
     0
 90
        0
176
     0
 40
0.6
176
     0
 40
30.0
176
     0
 62
     7
420
 16777215
176
     0
 90
        1
176
     0
 90
        4
176
     0
 62
     7
176
     0
 62
   257
176
     0
 90
        1
176
     0
 90
        1
176
     0
 40
1.0
176
     0
 90
       10
176
     2
 62
     7
176
     0
 40
1.0
176
     0
 90
        1
176
     0
 90
        6
176
     0
 90
        2
176
     0
 62
     7
176
     0
 90
        5
176
     0
 90
        0
176
     0
 90
        0
176
     0
290
     0
176
     0
 90
        1
176
     0
 40
0.0
176
     0
 90
        0
176
     0
290
     0
176
     0
290
     1
176
     0
290
     1
176
     0
290
     0
176
     0
290
     0
176
     0
290
     0
176
     0
290
     0
176
     0
290
     0
176
     0
290
     0
176
     0
 90
       50
176
     0
 40
0.0
176
     0
 40
1.0
176
     0
 90
        0
176
     0
 62
    18
420
        0
176
     0
 90
       50
176
     0
 90
        3
176
     0
 62
     5
420
      255
176
     0
290
     0
176
     0
 90
       50
176
     0
 90
       50
176
     0
 90
       50
176
     0
290
     0
176
     0
 90
       50
176
     0
 62
   256
176
     0
 40
1.0
176
     0
 90
        2
176
     0
  1
strokes_ogs.tif
176
     0
290
     0
176
     0
 40
1.0
176
     0
 40
1.0
176
     0
  0
VISUALSTYLE
  5
37
102
{ACAD_REACTORS
330
29
102
}
330
29
100
AcDbVisualStyle
  2
Linepattern
 70
    14
177
     3
291
     1
 70
    58
 90
        2
176
     1
 90
        2
176
     1
 90
        0
176
     1
 90
        0
176
     1
 40
0.6
176
     1
 40
30.0
176
     1
 62
     7
420
 16777215
176
     1
 90
        1
176
     1
 90
        4
176
     1
 62
     7
176
     1
 62
   257
176
     1
 90
        7
176
     1
 90
        7
176
     1
 40
1.0
176
     1
 90
        8
176
     1
 62
     7
176
     1
 40
1.0
176
     1
 90
        1
176
     1
 90
        6
176
     1
 90
        2
176
     1
 62
     7
176
     1
 90
        5
176
     1
 90
        0
176
     1
 90
        0
176
     1
290
     0
176
     1
 90
        1
176
     1
 40
0.0
176
     1
 90
        0
176
     1
290
     0
176
     1
290
     1
176
     1
290
     1
176
     1
290
     0
176
     1
290
     0
176
     1
290
     0
176
     1
290
     0
176
     1
290
     0
176
     1
290
     0
176
     1
 90
       50
176
     1
 40
0.0
176
     1
 40
1.0
176
     1
 90
        0
176
     1
 62
    18
420
        0
176
     1
 90
       50
176
     1
 90
        3
176
     1
 62
     5
420
      255
176
     1
290
     0
176
     1
 90
       50
176
     1
 90
       50
176
     1
 90
       50
176
     1
290
     0
176
     1
 90
       50
176
     1
 62
   256
176
     0
 40
1.0
176
     0
 90
        2
176
     1
  1
strokes_ogs.tif
176
     1
290
     0
176
     1
 40
1.0
176
     1
 40
1.0
176
     1
  0
VISUALSTYLE
  5
40
102
{ACAD_REACTORS
330
29
102
}
330
29
100
AcDbVisualStyle
  2
OverhangOff
 70
    21
177
     3
291
     1
 70
    58
 90
        2
176
     0
 90
        2
176
     0
 90
        0
176
     0
 90
        0
176
     0
 40
0.6
176
     0
 40
30.0
176
     0
 62
     7
420
 16777215
176
     0
 90
        1
176
     0
 90
        4
176
     0
 62
     7
176
     0
 62
   257
176
     0
 90
        1
176
     0
 90
        1
176
     0
 40
1.0
176
     0
 90
        9
176
     2
 62
     7
176
     0
 40
1.0
176
     0
 90
        1
176
     0
 90
        6
176
     0
 90
        2
176
     0
 62
     7
176
     0
 90
        5
176
     0
 90
        0
176
     0
 90
        0
176
     0
290
     0
176
     0
 90
        1
176
     0
 40
0.0
176
     0
 90
        0
176
     0
290
     0
176
     0
290
     1
176
     0
290
     1
176
     0
290
     0
176
     0
290
     0
176
     0
290
     0
176
     0
290
     0
176
     0
290
     0
176
     0
290
     0
176
     0
 90
       50
176
     0
 40
0.0
176
     0
 40
1.0
176
     0
 90
        0
176
     0
 62
    18
420
        0
176
     0
 90
       50
176
     0
 90
        3
176
     0
 62
     5
420
      255
176
     0
290
     0
176
     0
 90
       50
176
     0
 90
       50
176
     0
 90
       50
176
     0
290
     0
176
     0
 90
       50
176
     0
 62
   256
176
     0
 40
1.0
176
     0
 90
        2
176
     0
  1
strokes_ogs.tif
176
     0
290
     0
176
     0
 40
1.0
176
     0
 40
1.0
176
     0
  0
VISUALSTYLE
  5
33
102
{ACAD_REACTORS
330
29
102
}
330
29
100
AcDbVisualStyle
  2
Realistic
 70
     8
177
     3
291
     0
 70
    58
 90
        2
176
     1
 90
        3
176
     1
 90
        0
176
     1
 90
        2
176
     1
 40
0.6
176
     1
 40
30.0
176
     1
 62
     7
420
 16777215
176
     1
 90
        0
176
     1
 90
        0
176
     1
 62
     7
176
     1
 62
   257
176
     1
 90
        1
176
     1
 90
        1
176
     1
 40
1.0
176
     1
 90
        8
176
     1
 62
   257
176
     1
 40
1.0
176
     1
 90
        1
176
     1
 90
        6
176
     1
 90
        2
176
     1
 62
     7
176
     1
 90
        3
176
     1
 90
        0
176
     1
 90
        0
176
     1
290
     0
176
     1
 90
       13
176
     1
 40
0.0
176
     1
 90
        0
176
     1
290
     0
176
     1
290
     1
176
     1
290
     1
176
     1
290
     0
176
     1
290
     0
176
     1
290
     0
176
     1
290
     0
176
     1
290
     0
176
     1
290
     0
176
     1
 90
       50
176
     1
 40
0.0
176
     1
 40
1.0
176
     1
 90
        0
176
     1
 62
    18
420
        0
176
     1
 90
       50
176
     1
 90
        3
176
     1
 62
     5
420
      255
176
     1
290
     0
176
     1
 90
       50
176
     1
 90
       50
176
     1
 90
       50
176
     1
290
     0
176
     1
 90
       50
176
     1
 62
   256
176
     0
 40
1.0
176
     0
 90
        2
176
     1
  1
strokes_ogs.tif
176
     1
290
     0
176
     1
 40
1.0
176
     1
 40
1.0
176
     1
  0
VISUALSTYLE
  5
3E
102
{ACAD_REACTORS
330
29
102
}
330
29
100
AcDbVisualStyle
  2
Shaded
 70
    27
177
     3
291
     0
 70
    58
 90
        2
176
     1
 90
        2
176
     1
 90
        1
176
     1
 90
        2
176
     1
 40
0.6
176
     1
 40
30.0
176
     1
 62
     7
420
 16777215
176
     1
 90
        0
176
     1
 90
        4
176
     1
 62
     7
176
     1
 62
   257
176
     1
 90
        1
176
     1
 90
        1
176
     1
 40
1.0
176
     1
 90
        8
176
     1
 62
   257
176
     1
 40
1.0
176
     1
 90
        1
176
     1
 90
        6
176
     1
 90
        2
176
     1
 62
     8
420
  7895160
176
     1
 90
        3
176
     1
 90
        0
176
     1
 90
        0
176
     1
290
     0
176
     1
 90
        5
176
     1
 40
0.0
176
     1
 90
        0
176
     1
290
     0
176
     1
290
     1
176
     1
290
     1
176
     1
290
     0
176
     1
290
     0
176
     1
290
     0
176
     1
290
     0
176
     1
290
     0
176
     1
290
     0
176
     1
 90
       50
176
     1
 40
0.0
176
     1
 40
1.0
176
     1
 90
        0
176
     1
 62
    18
420
        0
176
     1
 90
       50
176
     1
 90
        3
176
     1
 62
     5
420
      255
176
     1
290
     0
176
     1
 90
       50
176
     1
 90
       50
176
     1
 90
       50
176
     1
290
     0
176
     1
 90
       50
176
     1
 62
   256
176
     0
 40
1.0
176
     0
 90
        2
176
     1
  1
strokes_ogs.tif
176
     1
290
     0
176
     1
 40
1.0
176
     1
 40
1.0
176
     1
  0
VISUALSTYLE
  5
3D
102
{ACAD_REACTORS
330
29
102
}
330
29
100
AcDbVisualStyle
  2
Shaded with edges
 70
    26
177
     3
291
     0
 70
    58
 90
        2
176
     1
 90
        2
176
     1
 90
        1
176
     1
 90
        2
176
     1
 40
0.6
176
     1
 40
30.0
176
     1
 62
     7
420
 16777215
176
     1
 90
        1
176
     1
 90
        2
176
     1
 62
     7
176
     1
 62
   257
176
     1
 90
        2
176
     1
 90
        1
176
     1
 40
1.0
176
     1
 90
        8
176
     1
 62
   257
176
     1
 40
1.0
176
     1
 90
        1
176
     1
 90
        6
176
     1
 90
        2
176
     1
 62
     7
176
     1
 90
        3
176
     1
 90
        0
176
     1
 90
        0
176
     1
290
     0
176
     1
 90
        5
176
     1
 40
0.0
176
     1
 90
        0
176
     1
290
     0
176
     1
290
     1
176
     1
290
     1
176
     1
290
     0
176
     1
290
     0
176
     1
290
     0
176
     1
290
     0
176
     1
290
     0
176
     1
290
     0
176
     1
 90
       50
176
     1
 40
0.0
176
     1
 40
1.0
176
     1
 90
        0
176
     1
 62
    18
420
        0
176
     1
 90
       50
176
     1
 90
        3
176
     1
 62
     5
420
      255
176
     1
290
     0
176
     1
 90
       50
176
     1
 90
       50
176
     1
 90
       50
176
     1
290
     0
176
     1
 90
       50
176
     1
 62
   256
176
     0
 40
1.0
176
     0
 90
        2
176
     1
  1
strokes_ogs.tif
176
     1
290
     0
176
     1
 40
1.0
176
     1
 40
1.0
176
     1
  0
VISUALSTYLE
  5
3A
102
{ACAD_REACTORS
330
29
102
}
330
29
100
AcDbVisualStyle
  2
Shades of Gray
 70
    23
177
     3
291
     0
 70
    58
 90
        2
176
     1
 90
        2
176
     1
 90
        3
176
     1
 90
        0
176
     1
 40
0.6
176
     1
 40
30.0
176
     1
 62
     7
420
 16777215
176
     1
 90
        2
176
     1
 90
        2
176
     1
 62
     7
176
     1
 62
     7
176
     1
 90
        1
176
     1
 90
        1
176
     1
 40
40.0
176
     1
 90
        8
176
     1
 62
     7
176
     1
 40
1.0
176
     1
 90
        1
176
     1
 90
        6
176
     1
 90
        2
176
     1
 62
     7
176
     1
 90
        3
176
     1
 90
        0
176
     1
 90
        0
176
     1
290
     0
176
     1
 90
        1
176
     1
 40
0.0
176
     1
 90
        0
176
     1
290
     0
176
     1
290
     1
176
     1
290
     1
176
     1
290
     0
176
     1
290
     0
176
     1
290
     0
176
     1
290
     0
176
     1
290
     0
176
     1
290
     0
176
     1
 90
       50
176
     1
 40
0.0
176
     1
 40
1.0
176
     1
 90
        0
176
     1
 62
    18
420
        0
176
     1
 90
       50
176
     1
 90
        3
176
     1
 62
     5
420
      255
176
     1
290
     0
176
     1
 90
       50
176
     1
 90
       50
176
     1
 90
       50
176
     1
290
     0
176
     1
 90
       50
176
     1
 62
   256
176
     0
 40
1.0
176
     0
 90
        2
176
     1
  1
strokes_ogs.tif
176
     1
290
     0
176
     1
 40
1.0
176
     1
 40
1.0
176
     1
  0
VISUALSTYLE
  5
3B
102
{ACAD_REACTORS
330
29
102
}
330
29
100
AcDbVisualStyle
  2
Sketchy
 70
    24
177
     3
291
     0
 70
    58
 90
        1
176
     1
 90
        2
176
     1
 90
        2
176
     1
 90
        0
176
     1
 40
0.6
176
     1
 40
30.0
176
     1
 62
     7
420
 16777215
176
     1
 90
        2
176
     1
 90
        2
176
     1
 62
     7
176
     1
 62
     7
176
     1
 90
        1
176
     1
 90
        1
176
     1
 40
40.0
176
     1
 90
       11
176
     1
 62
     7
176
     1
 40
1.0
176
     1
 90
        1
176
     1
 90
        6
176
     1
 90
        2
176
     1
 62
     7
176
     1
 90
        6
176
     1
 90
        0
176
     1
 90
        0
176
     1
290
     0
176
     1
 90
        1
176
     1
 40
0.0
176
     1
 90
        0
176
     1
290
     0
176
     1
290
     1
176
     1
290
     1
176
     1
290
     0
176
     1
290
     0
176
     1
290
     0
176
     1
290
     0
176
     1
290
     0
176
     1
290
     0
176
     1
 90
       50
176
     1
 40
0.0
176
     1
 40
1.0
176
     1
 90
        0
176
     1
 62
    18
420
        0
176
     1
 90
       50
176
     1
 90
        3
176
     1
 62
     5
420
      255
176
     1
290
     0
176
     1
 90
       50
176
     1
 90
       50
176
     1
 90
       50
176
     1
290
     0
176
     1
 90
       50
176
     1
 62
   256
176
     0
 40
1.0
176
     0
 90
        2
176
     1
  1
strokes_ogs.tif
176
     1
290
     0
176
     1
 40
1.0
176
     1
 40
1.0
176
     1
  0
VISUALSTYLE
  5
36
102
{ACAD_REACTORS
330
29
102
}
330
29
100
AcDbVisualStyle
  2
Thicken
 70
    13
177
     3
291
     1
 70
    58
 90
        2
176
     1
 90
        2
176
     1
 90
        0
176
     1
 90
        0
176
     1
 40
0.6
176
     1
 40
30.0
176
     1
 62
     7
420
 16777215
176
     1
 90
        1
176
     1
 90
        4
176
     1
 62
     7
176
     1
 62
   257
176
     1
 90
        1
176
     1
 90
        1
176
     1
 40
1.0
176
     1
 90
       12
176
     1
 62
     7
176
     1
 40
1.0
176
     1
 90
        1
176
     1
 90
        6
176
     1
 90
        2
176
     1
 62
     7
176
     1
 90
        5
176
     1
 90
        0
176
     1
 90
        0
176
     1
290
     0
176
     1
 90
        1
176
     1
 40
0.0
176
     1
 90
        0
176
     1
290
     0
176
     1
290
     1
176
     1
290
     1
176
     1
290
     0
176
     1
290
     0
176
     1
290
     0
176
     1
290
     0
176
     1
290
     0
176
     1
290
     0
176
     1
 90
       50
176
     1
 40
0.0
176
     1
 40
1.0
176
     1
 90
        0
176
     1
 62
    18
420
        0
176
     1
 90
       50
176
     1
 90
        3
176
     1
 62
     5
420
      255
176
     1
290
     0
176
     1
 90
       50
176
     1
 90
       50
176
     1
 90
       50
176
     1
290
     0
176
     1
 90
       50
176
     1
 62
   256
176
     0
 40
1.0
176
     0
 90
        2
176
     1
  1
strokes_ogs.tif
176
     1
290
     0
176
     1
 40
1.0
176
     1
 40
1.0
176
     1
  0
VISUALSTYLE
  5
30
102
{ACAD_REACTORS
330
29
102
}
330
29
100
AcDbVisualStyle
  2
Wireframe
 70
     5
177
     3
291
     0
 70
    58
 90
        0
176
     1
 90
        2
176
     1
 90
        0
176
     1
 90
        0
176
     1
 40
0.6
176
     1
 40
30.0
176
     1
 62
     7
420
 16777215
176
     1
 90
        1
176
     1
 90
        4
176
     1
 62
     7
176
     1
 62
   257
176
     1
 90
        1
176
     1
 90
        1
176
     1
 40
1.0
176
     1
 90
        0
176
     1
 62
   257
176
     1
 40
1.0
176
     1
 90
        1
176
     1
 90
        6
176
     1
 90
        2
176
     1
 62
     7
176
     1
 90
        3
176
     1
 90
        0
176
     1
 90
        0
176
     1
290
     0
176
     1
 90
        1
176
     1
 40
0.0
176
     1
 90
        0
176
     1
290
     0
176
     1
290
     1
176
     1
290
     1
176
     1
290
     0
176
     1
290
     0
176
     1
290
     0
176
     1
290
     0
176
     1
290
     0
176
     1
290
     0
176
     1
 90
       50
176
     1
 40
0.0
176
     1
 40
1.0
176
     1
 90
        0
176
     1
 62
    18
420
        0
176
     1
 90
       50
176
     1
 90
        3
176
     1
 62
     5
420
      255
176
     1
290
     0
176
     1
 90
       50
176
     1
 90
       50
176
     1
 90
       50
176
     1
290
     0
176
     1
 90
       50
176
     1
 62
   256
176
     0
 40
1.0
176
     0
 90
        2
176
     1
  1
strokes_ogs.tif
176
     1
290
     0
176
     1
 40
1.0
176
     1
 40
1.0
176
     1
  0
VISUALSTYLE
  5
3C
102
{ACAD_REACTORS
330
29
102
}
330
29
100
AcDbVisualStyle
  2
X-Ray
 70
    25
177
     3
291
     0
 70
    58
 90
        2
176
     1
 90
        2
176
     1
 90
        1
176
     1
 90
        1
176
     1
 40
0.5
176
     1
 40
30.0
176
     1
 62
     7
420
 16777215
176
     1
 90
        1
176
     1
 90
        0
176
     1
 62
     7
176
     1
 62
   257
176
     1
 90
        1
176
     1
 90
        1
176
     1
 40
1.0
176
     1
 90
        8
176
     1
 62
     7
176
     1
 40
1.0
176
     1
 90
        1
176
     1
 90
        6
176
     1
 90
        2
176
     1
 62
     7
176
     1
 90
        3
176
     1
 90
        0
176
     1
 90
        0
176
     1
290
     0
176
     1
 90
       13
176
     1
 40
0.0
176
     1
 90
        0
176
     1
290
     0
176
     1
290
     1
176
     1
290
     1
176
     1
290
     0
176
     1
290
     0
176
     1
290
     0
176
     1
290
     0
176
     1
290
     0
176
     1
290
     0
176
     1
 90
       50
176
     1
 40
0.0
176
     1
 40
1.0
176
     1
 90
        0
176
     1
 62
    18
420
        0
176
     1
 90
       50
176
     1
 90
        3
176
     1
 62
     5
420
      255
176
     1
290
     0
176
     1
 90
       50
176
     1
 90
       50
176
     1
 90
       50
176
     1
290
     0
176
     1
 90
       50
176
     1
 62
   256
176
     0
 40
1.0
176
     0
 90
        2
176
     1
  1
strokes_ogs.tif
176
     1
290
     0
176
     1
 40
1.0
176
     1
 40
1.0
176
     1
  0
DICTIONARYVAR
  5
3D8
102
{ACAD_REACTORS
330
3D3
102
}
330
3D3
100
DictionaryVariables
280
     0
  1
1:1
  0
DICTIONARYVAR
  5
3D5
102
{ACAD_REACTORS
330
3D3
102
}
330
3D3
100
DictionaryVariables
280
     0
  1
STANDARD
  0
DICTIONARYVAR
  5
3D4
102
{ACAD_REACTORS
330
3D3
102
}
330
3D3
100
DictionaryVariables
280
     0
  1
STANDARD
  0
DICTIONARYVAR
  5
3D6
102
{ACAD_REACTORS
330
3D3
102
}
330
3D3
100
DictionaryVariables
280
     0
  1
Imperial24
  0
DICTIONARYVAR
  5
3D7
102
{ACAD_REACTORS
330
3D3
102
}
330
3D3
100
DictionaryVariables
280
     0
  1
Imperial24
  0
DICTIONARY
  5
1A
330
19
100
AcDbDictionary
280
     1
281
     1
  3
BUMPTILE
360
1C
  3
DIFFUSETILE
360
1B
  3
OPACITYTILE
360
1F
  3
REFLECTIONTILE
360
1E
  3
REFRACTIONTILE
360
20
  3
SPECULARTILE
360
1D
  0
DICTIONARY
  5
12
330
11
100
AcDbDictionary
280
     1
281
     1
  3
BUMPTILE
360
14
  3
DIFFUSETILE
360
13
  3
OPACITYTILE
360
17
  3
REFLECTIONTILE
360
16
  3
REFRACTIONTILE
360
18
  3
SPECULARTILE
360
15
  0
DICTIONARY
  5
22
330
21
100
AcDbDictionary
280
     1
281
     1
  3
BUMPTILE
360
24
  3
DIFFUSETILE
360
23
  3
OPACITYTILE
360
27
  3
REFLECTIONTILE
360
26
  3
REFRACTIONTILE
360
28
  3
SPECULARTILE
360
25
  0
DICTIONARY
  5
3D9
330
65
100
AcDbDictionary
280
     1
281
     1
  3
ACAD_ROUNDTRIP_2008_TABLESTYLE_CELLSTYLEMAP
360
3DA
  0
XRECORD
  5
1C
102
{ACAD_REACTORS
330
1A
102
}
330
1A
100
AcDbXrecord
280
     1
270
     1
271
     1
  0
XRECORD
  5
1B
102
{ACAD_REACTORS
330
1A
102
}
330
1A
100
AcDbXrecord
280
     1
270
     1
271
     1
  0
XRECORD
  5
1F
102
{ACAD_REACTORS
330
1A
102
}
330
1A
100
AcDbXrecord
280
     1
270
     1
271
     1
  0
XRECORD
  5
1E
102
{ACAD_REACTORS
330
1A
102
}
330
1A
100
AcDbXrecord
280
     1
270
     1
271
     1
  0
XRECORD
  5
20
102
{ACAD_REACTORS
330
1A
102
}
330
1A
100
AcDbXrecord
280
     1
270
     1
271
     1
  0
XRECORD
  5
1D
102
{ACAD_REACTORS
330
1A
102
}
330
1A
100
AcDbXrecord
280
     1
270
     1
271
     1
  0
XRECORD
  5
14
102
{ACAD_REACTORS
330
12
102
}
330
12
100
AcDbXrecord
280
     1
270
     1
271
     1
  0
XRECORD
  5
13
102
{ACAD_REACTORS
330
12
102
}
330
12
100
AcDbXrecord
280
     1
270
     1
271
     1
  0
XRECORD
  5
17
102
{ACAD_REACTORS
330
12
102
}
330
12
100
AcDbXrecord
280
     1
270
     1
271
     1
  0
XRECORD
  5
16
102
{ACAD_REACTORS
330
12
102
}
330
12
100
AcDbXrecord
280
     1
270
     1
271
     1
  0
XRECORD
  5
18
102
{ACAD_REACTORS
330
12
102
}
330
12
100
AcDbXrecord
280
     1
270
     1
271
     1
  0
XRECORD
  5
15
102
{ACAD_REACTORS
330
12
102
}
330
12
100
AcDbXrecord
280
     1
270
     1
271
     1
  0
XRECORD
  5
24
102
{ACAD_REACTORS
330
22
102
}
330
22
100
AcDbXrecord
280
     1
270
     1
271
     1
  0
XRECORD
  5
23
102
{ACAD_REACTORS
330
22
102
}
330
22
100
AcDbXrecord
280
     1
270
     1
271
     1
  0
XRECORD
  5
27
102
{ACAD_REACTORS
330
22
102
}
330
22
100
AcDbXrecord
280
     1
270
     1
271
     1
  0
XRECORD
  5
26
102
{ACAD_REACTORS
330
22
102
}
330
22
100
AcDbXrecord
280
     1
270
     1
271
     1
  0
XRECORD
  5
28
102
{ACAD_REACTORS
330
22
102
}
330
22
100
AcDbXrecord
280
     1
270
     1
271
     1
  0
XRECORD
  5
25
102
{ACAD_REACTORS
330
22
102
}
330
22
100
AcDbXrecord
280
     1
270
     1
271
     1
  0
CELLSTYLEMAP
  5
3DA
102
{ACAD_REACTORS
330
3D9
102
}
330
3D9
100
AcDbCellStyleMap
 90
        3
300
CELLSTYLE
  1
TABLEFORMAT_BEGIN
 90
        5
170
     1
 91
        0
 92
    32768
 62
   257
 93
        1
300
CONTENTFORMAT
  1
CONTENTFORMAT_BEGIN
 90
        0
 91
        0
 92
      512
 93
        0
300

 40
0.0
140
1.0
 94
        5
 62
     0
340
55
144
0.25
309
CONTENTFORMAT_END
171
     0
 94
        0
309
TABLEFORMAT_END
  1
CELLSTYLE_BEGIN
 90
        1
 91
        1
300
_TITLE
309
CELLSTYLE_END
300
CELLSTYLE
  1
TABLEFORMAT_BEGIN
 90
        5
170
     1
 91
        0
 92
        0
 62
   257
 93
        1
300
CONTENTFORMAT
  1
CONTENTFORMAT_BEGIN
 90
        0
 91
        0
 92
      512
 93
        0
300

 40
0.0
140
1.0
 94
        5
 62
     0
340
55
144
0.18
309
CONTENTFORMAT_END
171
     0
 94
        0
309
TABLEFORMAT_END
  1
CELLSTYLE_BEGIN
 90
        2
 91
        1
300
_HEADER
309
CELLSTYLE_END
300
CELLSTYLE
  1
TABLEFORMAT_BEGIN
 90
        5
170
     1
 91
        0
 92
        0
 62
   257
 93
        1
300
CONTENTFORMAT
  1
CONTENTFORMAT_BEGIN
 90
        0
 91
        0
 92
      512
 93
        0
300

 40
0.0
140
1.0
 94
        2
 62
     0
340
55
144
0.18
309
CONTENTFORMAT_END
171
     0
 94
        0
309
TABLEFORMAT_END
  1
CELLSTYLE_BEGIN
 90
        3
 91
        2
300
_DATA
309
CELLSTYLE_END
  0
ENDSEC
  0
EOF
