  0
SECTION
  2
HEADER
  9
$ACADVER
  1
AC1032
  9
$ACADMAINTVER
 90
      329
  9
$DWGCODEPAGE
  3
ANSI_1252
  9
$REQUIREDVERSIONS
160
                 0
  9
$INSBASE
 10
0.0
 20
0.0
 30
0.0
  9
$EXTMIN
 10
1.000000000000000E+20
 20
1.000000000000000E+20
 30
1.000000000000000E+20
  9
$EXTMAX
 10
-1.000000000000000E+20
 20
-1.000000000000000E+20
 30
-1.000000000000000E+20
  9
$LIMMIN
 10
0.0
 20
0.0
  9
$LIMMAX
 10
12.0
 20
9.0
  9
$ORTHOMODE
 70
     0
  9
$REGENMODE
 70
     1
  9
$FILLMODE
 70
     1
  9
$QTEXTMODE
 70
     0
  9
$MIRRTEXT
 70
     0
  9
$LTSCALE
 40
1.0
  9
$ATTMODE
 70
     1
  9
$TEXTSIZE
 40
0.2
  9
$TRACEWID
 40
0.05
  9
$TEXTSTYLE
  7
Standard
  9
$CLAYER
  8
0
  9
$CELTYPE
  6
ByLayer
  9
$CECOLOR
 62
   256
  9
$CELTSCALE
 40
1.0
  9
$DISPSILH
 70
     0
  9
$DIMSCALE
 40
1.0
  9
$DIMASZ
 40
0.18
  9
$DIMEXO
 40
0.0625
  9
$DIMDLI
 40
0.38
  9
$DIMRND
 40
0.0
  9
$DIMDLE
 40
0.0
  9
$DIMEXE
 40
0.18
  9
$DIMTP
 40
0.0
  9
$DIMTM
 40
0.0
  9
$DIMTXT
 40
0.18
  9
$DIMCEN
 40
0.09
  9
$DIMTSZ
 40
0.0
  9
$DIMTOL
 70
     0
  9
$DIMLIM
 70
     0
  9
$DIMTIH
 70
     1
  9
$DIMTOH
 70
     1
  9
$DIMSE1
 70
     0
  9
$DIMSE2
 70
     0
  9
$DIMTAD
 70
     0
  9
$DIMZIN
 70
     0
  9
$DIMBLK
  1

  9
$DIMASO
 70
     1
  9
$DIMSHO
 70
     1
  9
$DIMPOST
  1

  9
$DIMAPOST
  1

  9
$DIMALT
 70
     0
  9
$DIMALTD
 70
     2
  9
$DIMALTF
 40
25.4
  9
$DIMLFAC
 40
1.0
  9
$DIMTOFL
 70
     0
  9
$DIMTVP
 40
0.0
  9
$DIMTIX
 70
     0
  9
$DIMSOXD
 70
     0
  9
$DIMSAH
 70
     0
  9
$DIMBLK1
  1

  9
$DIMBLK2
  1

  9
$DIMSTYLE
  2
Standard
  9
$DIMCLRD
 70
     0
  9
$DIMCLRE
 70
     0
  9
$DIMCLRT
 70
     0
  9
$DIMTFAC
 40
1.0
  9
$DIMGAP
 40
0.09
  9
$DIMJUST
 70
     0
  9
$DIMSD1
 70
     0
  9
$DIMSD2
 70
     0
  9
$DIMTOLJ
 70
     1
  9
$DIMTZIN
 70
     0
  9
$DIMALTZ
 70
     0
  9
$DIMALTTZ
 70
     0
  9
$DIMUPT
 70
     0
  9
$DIMDEC
 70
     4
  9
$DIMTDEC
 70
     4
  9
$DIMALTU
 70
     2
  9
$DIMALTTD
 70
     2
  9
$DIMTXSTY
  7
Standard
  9
$DIMAUNIT
 70
     0
  9
$DIMADEC
 70
     0
  9
$DIMALTRND
 40
0.0
  9
$DIMAZIN
 70
     0
  9
$DIMDSEP
 70
    46
  9
$DIMATFIT
 70
     3
  9
$DIMFRAC
 70
     0
  9
$DIMLDRBLK
  1

  9
$DIMLUNIT
 70
     2
  9
$DIMLWD
 70
    -2
  9
$DIMLWE
 70
    -2
  9
$DIMTMOVE
 70
     0
  9
$DIMFXL
 40
1.0
  9
$DIMFXLON
 70
     0
  9
$DIMJOGANG
 40
0.7853981633974483
  9
$DIMTFILL
 70
     0
  9
$DIMTFILLCLR
 70
     0
  9
$DIMARCSYM
 70
     0
  9
$DIMLTYPE
  6

  9
$DIMLTEX1
  6

  9
$DIMLTEX2
  6

  9
$DIMTXTDIRECTION
 70
     0
  9
$LUNITS
 70
     2
  9
$LUPREC
 70
     4
  9
$SKETCHINC
 40
0.1
  9
$FILLETRAD
 40
0.0
  9
$AUNITS
 70
     0
  9
$AUPREC
 70
     0
  9
$MENU
  1
.
  9
$ELEVATION
 40
0.0
  9
$PELEVATION
 40
0.0
  9
$THICKNESS
 40
0.0
  9
$LIMCHECK
 70
     0
  9
$CHAMFERA
 40
0.0
  9
$CHAMFERB
 40
0.0
  9
$CHAMFERC
 40
0.0
  9
$CHAMFERD
 40
0.0
  9
$SKPOLY
 70
     0
  9
$TDCREATE
 40
2460759.611400463
  9
$TDUCREATE
 40
2460759.611400463
  9
$TDUPDATE
 40
2460759.611400463
  9
$TDUUPDATE
 40
2460759.611400463
  9
$TDINDWG
 40
0.0000000000
  9
$TDUSRTIMER
 40
0.0000000000
  9
$USRTIMER
 70
     1
  9
$ANGBASE
 50
0.0
  9
$ANGDIR
 70
     0
  9
$PDMODE
 70
     0
  9
$PDSIZE
 40
0.0
  9
$PLINEWID
 40
0.0
  9
$SPLFRAME
 70
     0
  9
$SPLINETYPE
 70
     6
  9
$SPLINESEGS
 70
     8
  9
$HANDSEED
  5
230
  9
$SURFTAB1
 70
     6
  9
$SURFTAB2
 70
     6
  9
$SURFTYPE
 70
     6
  9
$SURFU
 70
     6
  9
$SURFV
 70
     6
  9
$UCSBASE
  2

  9
$UCSNAME
  2

  9
$UCSORG
 10
0.0
 20
0.0
 30
0.0
  9
$UCSXDIR
 10
1.0
 20
0.0
 30
0.0
  9
$UCSYDIR
 10
0.0
 20
1.0
 30
0.0
  9
$UCSORTHOREF
  2

  9
$UCSORTHOVIEW
 70
     0
  9
$UCSORGTOP
 10
0.0
 20
0.0
 30
0.0
  9
$UCSORGBOTTOM
 10
0.0
 20
0.0
 30
0.0
  9
$UCSORGLEFT
 10
0.0
 20
0.0
 30
0.0
  9
$UCSORGRIGHT
 10
0.0
 20
0.0
 30
0.0
  9
$UCSORGFRONT
 10
0.0
 20
0.0
 30
0.0
  9
$UCSORGBACK
 10
0.0
 20
0.0
 30
0.0
  9
$PUCSBASE
  2

  9
$PUCSNAME
  2

  9
$PUCSORG
 10
0.0
 20
0.0
 30
0.0
  9
$PUCSXDIR
 10
1.0
 20
0.0
 30
0.0
  9
$PUCSYDIR
 10
0.0
 20
1.0
 30
0.0
  9
$PUCSORTHOREF
  2

  9
$PUCSORTHOVIEW
 70
     0
  9
$PUCSORGTOP
 10
0.0
 20
0.0
 30
0.0
  9
$PUCSORGBOTTOM
 10
0.0
 20
0.0
 30
0.0
  9
$PUCSORGLEFT
 10
0.0
 20
0.0
 30
0.0
  9
$PUCSORGRIGHT
 10
0.0
 20
0.0
 30
0.0
  9
$PUCSORGFRONT
 10
0.0
 20
0.0
 30
0.0
  9
$PUCSORGBACK
 10
0.0
 20
0.0
 30
0.0
  9
$USERI1
 70
     0
  9
$USERI2
 70
     0
  9
$USERI3
 70
     0
  9
$USERI4
 70
     0
  9
$USERI5
 70
     0
  9
$USERR1
 40
0.0
  9
$USERR2
 40
0.0
  9
$USERR3
 40
0.0
  9
$USERR4
 40
0.0
  9
$USERR5
 40
0.0
  9
$WORLDVIEW
 70
     1
  9
$SHADEDGE
 70
     3
  9
$SHADEDIF
 70
    70
  9
$TILEMODE
 70
     1
  9
$MAXACTVP
 70
    64
  9
$PINSBASE
 10
0.0
 20
0.0
 30
0.0
  9
$PLIMCHECK
 70
     0
  9
$PEXTMIN
 10
1.000000000000000E+20
 20
1.000000000000000E+20
 30
1.000000000000000E+20
  9
$PEXTMAX
 10
-1.000000000000000E+20
 20
-1.000000000000000E+20
 30
-1.000000000000000E+20
  9
$PLIMMIN
 10
0.0
 20
0.0
  9
$PLIMMAX
 10
12.0
 20
9.0
  9
$UNITMODE
 70
     0
  9
$VISRETAIN
 70
     1
  9
$PLINEGEN
 70
     0
  9
$PSLTSCALE
 70
     1
  9
$TREEDEPTH
 70
  3020
  9
$CMLSTYLE
  2
Standard
  9
$CMLJUST
 70
     0
  9
$CMLSCALE
 40
1.0
  9
$PROXYGRAPHICS
 70
     1
  9
$MEASUREMENT
 70
     0
  9
$CELWEIGHT
370
    -1
  9
$ENDCAPS
280
     0
  9
$JOINSTYLE
280
     0
  9
$LWDISPLAY
290
     1
  9
$INSUNITS
 70
     4
  9
$HYPERLINKBASE
  1

  9
$STYLESHEET
  1

  9
$XEDIT
290
     1
  9
$CEPSNTYPE
380
     0
  9
$PSTYLEMODE
290
     1
  9
$FINGERPRINTGUID
  2
{009808BD-3C56-3B4C-81C9-2C73A5260BEF}
  9
$VERSIONGUID
  2
{F8FE28BE-24EB-F64A-97FC-1DF845F0046B}
  9
$EXTNAMES
290
     1
  9
$PSVPSCALE
 40
0.0
  9
$OLESTARTUP
290
     0
  9
$SORTENTS
280
   127
  9
$INDEXCTL
280
     0
  9
$HIDETEXT
280
     1
  9
$XCLIPFRAME
280
     2
  9
$HALOGAP
280
     0
  9
$OBSCOLOR
 70
   257
  9
$OBSLTYPE
280
     0
  9
$INTERSECTIONDISPLAY
280
     0
  9
$INTERSECTIONCOLOR
 70
   257
  9
$DIMASSOC
280
     2
  9
$PROJECTNAME
  1

  9
$CAMERADISPLAY
290
     0
  9
$LENSLENGTH
 40
50.0
  9
$CAMERAHEIGHT
 40
0.0
  9
$STEPSPERSEC
 40
2.0
  9
$STEPSIZE
 40
6.0
  9
$3DDWFPREC
 40
2.0
  9
$PSOLWIDTH
 40
0.25
  9
$PSOLHEIGHT
 40
4.0
  9
$LOFTANG1
 40
1.570796326794896
  9
$LOFTANG2
 40
1.570796326794896
  9
$LOFTMAG1
 40
0.0
  9
$LOFTMAG2
 40
0.0
  9
$LOFTPARAM
 70
     7
  9
$LOFTNORMALS
280
     1
  9
$LATITUDE
 40
37.795
  9
$LONGITUDE
 40
-122.394
  9
$NORTHDIRECTION
 40
0.0
  9
$TIMEZONE
 70
 -8000
  9
$LIGHTGLYPHDISPLAY
280
     1
  9
$TILEMODELIGHTSYNCH
280
     1
  9
$CMATERIAL
347
11
  9
$SOLIDHIST
280
     0
  9
$SHOWHIST
280
     1
  9
$DWFFRAME
280
     2
  9
$DGNFRAME
280
     0
  9
$REALWORLDSCALE
290
     1
  9
$INTERFERECOLOR
 62
     1
  9
$INTERFEREOBJVS
345
33
  9
$INTERFEREVPVS
346
30
  9
$CSHADOW
280
     0
  9
$SHADOWPLANELOCATION
 40
0.0
  0
ENDSEC
  0
SECTION
  2
CLASSES
  0
CLASS
  1
ACDBDICTIONARYWDFLT
  2
AcDbDictionaryWithDefault
  3
ObjectDBX Classes
 90
        0
 91
        1
280
     0
281
     0
  0
CLASS
  1
MATERIAL
  2
AcDbMaterial
  3
ObjectDBX Classes
 90
     1153
 91
        3
280
     0
281
     0
  0
CLASS
  1
VISUALSTYLE
  2
AcDbVisualStyle
  3
ObjectDBX Classes
 90
     4095
 91
       24
280
     0
281
     0
  0
CLASS
  1
SCALE
  2
AcDbScale
  3
ObjectDBX Classes
 90
     1153
 91
       17
280
     0
281
     0
  0
CLASS
  1
TABLESTYLE
  2
AcDbTableStyle
  3
ObjectDBX Classes
 90
     4095
 91
        1
280
     0
281
     0
  0
CLASS
  1
MLEADERSTYLE
  2
AcDbMLeaderStyle
  3
ACDB_MLEADERSTYLE_CLASS
 90
     4095
 91
        1
280
     0
281
     0
  0
CLASS
  1
ACDBSECTIONVIEWSTYLE
  2
AcDbSectionViewStyle
  3
ObjectDBX Classes
 90
     1025
 91
        1
280
     0
281
     0
  0
CLASS
  1
ACDBDETAILVIEWSTYLE
  2
AcDbDetailViewStyle
  3
ObjectDBX Classes
 90
     1025
 91
        1
280
     0
281
     0
  0
CLASS
  1
DICTIONARYVAR
  2
AcDbDictionaryVar
  3
ObjectDBX Classes
 90
        0
 91
        5
280
     0
281
     0
  0
CLASS
  1
CELLSTYLEMAP
  2
AcDbCellStyleMap
  3
ObjectDBX Classes
 90
     1152
 91
        1
280
     0
281
     0
  0
ENDSEC
  0
SECTION
  2
TABLES
  0
TABLE
  2
VPORT
  5
8
330
0
100
AcDbSymbolTable
 70
     1
  0
VPORT
  5
57
330
8
100
AcDbSymbolTableRecord
100
AcDbViewportTableRecord
  2
*Active
 70
     0
 10
0.0
 20
0.0
 11
1.0
 21
1.0
 12
0.0
 22
0.0
 13
0.0
 23
0.0
 14
1.0
 24
1.0
 15
0.0
 25
0.0
 16
0.0
 26
0.0
 36
1.0
 17
374.9999999062495
 27
73.85453678144395
 37
0.0
 40
155.9090782227228
 41
4.906705937392007
 42
50.0
 43
0.0
 44
0.0
 50
0.0
 51
0.0
 71
     0
 72
   100
 73
     1
 74
     1
 75
     0
 76
     0
 77
     0
 78
     0
281
     0
 65
     1
110
0.0
120
0.0
130
0.0
111
1.0
121
0.0
131
0.0
112
0.0
122
1.0
132
0.0
 79
     0
146
0.0
 60
     3
 61
     5
292
     1
282
     1
141
0.0
142
0.0
 63
   250
421
  3355443
  0
ENDTAB
  0
TABLE
  2
LTYPE
  5
5
330
0
100
AcDbSymbolTable
 70
     1
  0
LTYPE
  5
5B
330
5
100
AcDbSymbolTableRecord
100
AcDbLinetypeTableRecord
  2
ByBlock
 70
     0
  3

 72
    65
 73
     0
 40
0.0
  0
LTYPE
  5
5C
330
5
100
AcDbSymbolTableRecord
100
AcDbLinetypeTableRecord
  2
ByLayer
 70
     0
  3

 72
    65
 73
     0
 40
0.0
  0
LTYPE
  5
5D
330
5
100
AcDbSymbolTableRecord
100
AcDbLinetypeTableRecord
  2
Continuous
 70
     0
  3
Solid line
 72
    65
 73
     0
 40
0.0
  0
ENDTAB
  0
TABLE
  2
LAYER
  5
2
330
0
100
AcDbSymbolTable
 70
     1
  0
LAYER
  5
54
330
2
100
AcDbSymbolTableRecord
100
AcDbLayerTableRecord
  2
0
 70
     0
 62
     7
  6
Continuous
370
     0
390
F
347
21
348
0
  0
ENDTAB
  0
TABLE
  2
STYLE
  5
3
330
0
100
AcDbSymbolTable
 70
     2
  0
STYLE
  5
55
330
3
100
AcDbSymbolTableRecord
100
AcDbTextStyleTableRecord
  2
Standard
 70
     0
 40
0.0
 41
1.0
 50
0.0
 71
     0
 42
0.2
  3
txt
  4

  0
STYLE
  5
5A
330
3
100
AcDbSymbolTableRecord
100
AcDbTextStyleTableRecord
  2
Annotative
 70
     0
 40
0.0
 41
1.0
 50
0.0
 71
     0
 42
0.2
  3
txt
  4

1001
AcadAnnotative
1000
AnnotativeData
1002
{
1070
     1
1070
     1
1002
}
  0
ENDTAB
  0
TABLE
  2
VIEW
  5
6
330
0
100
AcDbSymbolTable
 70
     0
  0
ENDTAB
  0
TABLE
  2
UCS
  5
7
330
0
100
AcDbSymbolTable
 70
     0
  0
ENDTAB
  0
TABLE
  2
APPID
  5
9
330
0
100
AcDbSymbolTable
 70
     2
  0
APPID
  5
56
330
9
100
AcDbSymbolTableRecord
100
AcDbRegAppTableRecord
  2
ACAD
 70
     0
  0
APPID
  5
5E
330
9
100
AcDbSymbolTableRecord
100
AcDbRegAppTableRecord
  2
AcadAnnotative
 70
     0
  0
ENDTAB
  0
TABLE
  2
DIMSTYLE
  5
A
330
0
100
AcDbSymbolTable
 70
     2
100
AcDbDimStyleTable
 71
     0
  0
DIMSTYLE
105
58
330
A
100
AcDbSymbolTableRecord
100
AcDbDimStyleTableRecord
  2
Standard
 70
     0
340
55
  0
DIMSTYLE
105
59
330
A
100
AcDbSymbolTableRecord
100
AcDbDimStyleTableRecord
  2
Annotative
 70
     0
340
55
1001
AcadAnnotative
1000
AnnotativeData
1002
{
1070
     1
1070
     1
1002
}
  0
ENDTAB
  0
TABLE
  2
BLOCK_RECORD
  5
1
330
0
100
AcDbSymbolTable
 70
    11
  0
BLOCK_RECORD
  5
70
330
1
100
AcDbSymbolTableRecord
100
AcDbBlockTableRecord
  2
*Model_Space
340
73
 70
     0
280
     1
281
     0
  0
BLOCK_RECORD
  5
6C
330
1
100
AcDbSymbolTableRecord
100
AcDbBlockTableRecord
  2
*Paper_Space
340
6F
 70
     0
280
     1
281
     0
  0
BLOCK_RECORD
  5
74
330
1
100
AcDbSymbolTableRecord
100
AcDbBlockTableRecord
  2
*Paper_Space0
340
77
 70
     0
280
     1
281
     0
  0
BLOCK_RECORD
  5
78
330
1
100
AcDbSymbolTableRecord
100
AcDbBlockTableRecord
  2
Block_0
340
0
102
{BLKREFS
331
79
102
}
 70
     0
280
     1
281
     0
  0
BLOCK_RECORD
  5
80
330
1
100
AcDbSymbolTableRecord
100
AcDbBlockTableRecord
  2
Block_1
340
0
102
{BLKREFS
331
81
102
}
 70
     0
280
     1
281
     0
  0
BLOCK_RECORD
  5
F0
330
1
100
AcDbSymbolTableRecord
100
AcDbBlockTableRecord
  2
Block_2
340
0
102
{BLKREFS
331
F1
102
}
 70
     0
280
     1
281
     0
  0
BLOCK_RECORD
  5
F8
330
1
100
AcDbSymbolTableRecord
100
AcDbBlockTableRecord
  2
Block_3
340
0
102
{BLKREFS
331
F9
102
}
 70
     0
280
     1
281
     0
  0
BLOCK_RECORD
  5
100
330
1
100
AcDbSymbolTableRecord
100
AcDbBlockTableRecord
  2
Block_4
340
0
102
{BLKREFS
331
101
102
}
 70
     0
280
     1
281
     0
  0
BLOCK_RECORD
  5
108
330
1
100
AcDbSymbolTableRecord
100
AcDbBlockTableRecord
  2
Block_5
340
0
102
{BLKREFS
331
109
102
}
 70
     0
280
     1
281
     0
  0
BLOCK_RECORD
  5
112
330
1
100
AcDbSymbolTableRecord
100
AcDbBlockTableRecord
  2
Block_6
340
0
102
{BLKREFS
331
113
102
}
 70
     0
280
     1
281
     0
  0
BLOCK_RECORD
  5
11A
330
1
100
AcDbSymbolTableRecord
100
AcDbBlockTableRecord
  2
Block_7
340
0
102
{BLKREFS
331
11B
102
}
 70
     0
280
     1
281
     0
  0
BLOCK_RECORD
  5
124
330
1
100
AcDbSymbolTableRecord
100
AcDbBlockTableRecord
  2
Block_8
340
0
102
{BLKREFS
331
125
102
}
 70
     0
280
     1
281
     0
  0
BLOCK_RECORD
  5
21C
330
1
100
AcDbSymbolTableRecord
100
AcDbBlockTableRecord
  2
Block_9
340
0
102
{BLKREFS
331
21D
102
}
 70
     0
280
     1
281
     0
  0
ENDTAB
  0
ENDSEC
  0
SECTION
  2
BLOCKS
  0
BLOCK
  5
71
330
70
100
AcDbEntity
  8
0
100
AcDbBlockBegin
  2
*Model_Space
 70
     0
 10
0.0
 20
0.0
 30
0.0
  3
*Model_Space
  1

  0
ENDBLK
  5
72
330
70
100
AcDbEntity
  8
0
100
AcDbBlockEnd
  0
BLOCK
  5
6D
330
6C
100
AcDbEntity
 67
     1
  8
0
100
AcDbBlockBegin
  2
*Paper_Space
 70
     0
 10
0.0
 20
0.0
 30
0.0
  3
*Paper_Space
  1

  0
ENDBLK
  5
6E
330
6C
100
AcDbEntity
 67
     1
  8
0
100
AcDbBlockEnd
  0
BLOCK
  5
75
330
74
100
AcDbEntity
 67
     1
  8
0
100
AcDbBlockBegin
  2
*Paper_Space0
 70
     0
 10
0.0
 20
0.0
 30
0.0
  3
*Paper_Space0
  1

  0
ENDBLK
  5
76
330
74
100
AcDbEntity
 67
     1
  8
0
100
AcDbBlockEnd
  0
BLOCK
  5
7A
330
78
100
AcDbEntity
  8
0
100
AcDbBlockBegin
  2
Block_0
 70
     0
 10
0.0
 20
0.0
 30
0.0
  3
Block_0
  1

  0
LINE
  5
7C
330
78
100
AcDbEntity
  8
0
 62
    18
420
        0
370
    25
100
AcDbLine
 10
319.9109919518695
 20
-2.446481955185112
 30
0.0
 11
319.9109919518695
 21
-2.446481955185112
 31
0.0
  0
LINE
  5
7D
330
78
100
AcDbEntity
  8
0
 62
    18
420
        0
370
    25
100
AcDbLine
 10
319.9109919518695
 20
-2.446481955185112
 30
0.0
 11
319.9109919518695
 21
-2.446481955185112
 31
0.0
  0
LINE
  5
7E
330
78
100
AcDbEntity
  8
0
 62
    18
420
        0
370
    25
100
AcDbLine
 10
319.9109919518695
 20
-2.446481955185112
 30
0.0
 11
319.9109919518695
 21
-2.446481955185112
 31
0.0
  0
LINE
  5
7F
330
78
100
AcDbEntity
  8
0
 62
    18
420
        0
370
    25
100
AcDbLine
 10
319.9109919518695
 20
-2.446481955185112
 30
0.0
 11
319.9109919518695
 21
-2.446481955185112
 31
0.0
  0
ENDBLK
  5
7B
330
78
100
AcDbEntity
  8
0
100
AcDbBlockEnd
  0
BLOCK
  5
82
330
80
100
AcDbEntity
  8
0
100
AcDbBlockBegin
  2
Block_1
 70
     0
 10
0.0
 20
0.0
 30
0.0
  3
Block_1
  1

  0
LINE
  5
84
330
80
100
AcDbEntity
  8
0
 62
    18
420
        0
370
    25
100
AcDbLine
 10
319.9109919518695
 20
-2.446481955185112
 30
0.0
 11
319.9109919518695
 21
-2.446481955185112
 31
0.0
  0
LINE
  5
85
330
80
100
AcDbEntity
  8
0
 62
    18
420
        0
370
    25
100
AcDbLine
 10
319.9109919518695
 20
-2.446481955185112
 30
0.0
 11
319.9109919518695
 21
-2.446481955185112
 31
0.0
  0
LINE
  5
86
330
80
100
AcDbEntity
  8
0
 62
    18
420
        0
370
    25
100
AcDbLine
 10
319.9109919518695
 20
-2.446481955185112
 30
0.0
 11
319.9109919518695
 21
-2.446481955185112
 31
0.0
  0
LINE
  5
87
330
80
100
AcDbEntity
  8
0
 62
    18
420
        0
370
    25
100
AcDbLine
 10
319.9109919518695
 20
-2.446481955185112
 30
0.0
 11
319.9109919518695
 21
-2.446481955185112
 31
0.0
  0
ENDBLK
  5
83
330
80
100
AcDbEntity
  8
0
100
AcDbBlockEnd
  0
BLOCK
  5
F2
330
F0
100
AcDbEntity
  8
0
100
AcDbBlockBegin
  2
Block_2
 70
     0
 10
0.0
 20
0.0
 30
0.0
  3
Block_2
  1

  0
LINE
  5
F4
330
F0
100
AcDbEntity
  8
0
 62
    18
420
        0
370
     0
100
AcDbLine
 10
386.4839105470693
 20
78.3270329814807
 30
0.0
 11
379.9827548250114
 21
78.32703298148039
 31
0.0
  0
LINE
  5
F5
330
F0
100
AcDbEntity
  8
0
 62
    18
420
        0
370
     0
100
AcDbLine
 10
386.4839105470693
 20
51.87268619792909
 30
0.0
 11
379.9827548250114
 21
51.87268619792845
 31
0.0
  0
LINE
  5
F6
330
F0
100
AcDbEntity
  8
0
 62
    18
420
        0
370
     0
100
AcDbLine
 10
380.511841760682
 20
78.32703298148039
 30
0.0
 11
380.5118417606827
 21
51.87268619792845
 31
0.0
  0
MTEXT
  5
F7
330
F0
100
AcDbEntity
  8
0
100
AcDbMText
 10
379.9765427804808
 20
63.65709633828384
 30
0.0
 40
0.2
 41
0.0
 46
0.0
 71
     7
 72
     1
  1
\C18;\c0;\FMyriad Pro|b0|i0|c1;\H1.851804;\W0.750000;100
 11
-0.0000000000000106
 21
1.0
 31
0.0
 73
     1
 44
1.0
  0
ENDBLK
  5
F3
330
F0
100
AcDbEntity
  8
0
100
AcDbBlockEnd
  0
BLOCK
  5
FA
330
F8
100
AcDbEntity
  8
0
100
AcDbBlockBegin
  2
Block_3
 70
     0
 10
0.0
 20
0.0
 30
0.0
  3
Block_3
  1

  0
LINE
  5
FC
330
F8
100
AcDbEntity
  8
0
 62
    18
420
        0
370
     0
100
AcDbLine
 10
394.0366265537732
 20
75.02023963353643
 30
0.0
 11
405.3061782835665
 21
75.02023963353643
 31
0.0
  0
LINE
  5
FD
330
F8
100
AcDbEntity
  8
0
 62
    18
420
        0
370
     0
100
AcDbLine
 10
398.428048119843
 20
68.4066529376482
 30
0.0
 11
405.3061782835665
 21
68.4066529376482
 31
0.0
  0
LINE
  5
FE
330
F8
100
AcDbEntity
  8
0
 62
    18
420
        0
370
     0
100
AcDbLine
 10
404.7770913478952
 20
75.02023963353643
 30
0.0
 11
404.7770913478952
 21
68.4066529376482
 31
0.0
  0
MTEXT
  5
FF
330
F8
100
AcDbEntity
  8
0
100
AcDbMText
 10
404.2417929168387
 20
70.47459579403383
 30
0.0
 40
0.2
 41
0.0
 46
0.0
 71
     7
 72
     1
  1
\C18;\c0;\FMyriad Pro|b0|i0|c1;\H1.851804;\W0.750000;25
 11
-0.000000000000007
 21
1.0
 31
0.0
 73
     1
 44
1.0
  0
ENDBLK
  5
FB
330
F8
100
AcDbEntity
  8
0
100
AcDbBlockEnd
  0
BLOCK
  5
102
330
100
100
AcDbEntity
  8
0
100
AcDbBlockBegin
  2
Block_4
 70
     0
 10
0.0
 20
0.0
 30
0.0
  3
Block_4
  1

  0
LINE
  5
104
330
100
100
AcDbEntity
  8
0
 62
    18
420
        0
370
     0
100
AcDbLine
 10
398.428048119843
 20
68.4066529376482
 30
0.0
 11
405.3061782835665
 21
68.4066529376482
 31
0.0
  0
LINE
  5
105
330
100
100
AcDbEntity
  8
0
 62
    18
420
        0
370
     0
100
AcDbLine
 10
398.428048119843
 20
61.7930662417603
 30
0.0
 11
405.3061782835665
 21
61.7930662417603
 31
0.0
  0
LINE
  5
106
330
100
100
AcDbEntity
  8
0
 62
    18
420
        0
370
     0
100
AcDbLine
 10
404.7770913478952
 20
68.4066529376482
 30
0.0
 11
404.7770913478952
 21
61.7930662417603
 31
0.0
  0
MTEXT
  5
107
330
100
100
AcDbEntity
  8
0
100
AcDbMText
 10
404.2417929168323
 20
64.34129230165189
 30
0.0
 40
0.2
 41
0.0
 46
0.0
 71
     7
 72
     1
  1
\C18;\c0;\FMyriad Pro|b0|i0|c1;\H1.851804;\W0.750000;25
 11
-0.0000000000000097
 21
1.0
 31
0.0
 73
     1
 44
1.0
  0
ENDBLK
  5
103
330
100
100
AcDbEntity
  8
0
100
AcDbBlockEnd
  0
BLOCK
  5
10A
330
108
100
AcDbEntity
  8
0
100
AcDbBlockBegin
  2
Block_5
 70
     0
 10
0.0
 20
0.0
 30
0.0
  3
Block_5
  1

  0
LINE
  5
10C
330
108
100
AcDbEntity
  8
0
 62
    18
420
        0
370
     0
100
AcDbLine
 10
395.7826134414878
 20
78.3270329814807
 30
0.0
 11
405.3061782835665
 21
78.32703298148103
 31
0.0
  0
LINE
  5
10D
330
108
100
AcDbEntity
  8
0
 62
    18
420
        0
370
     0
100
AcDbLine
 10
394.0366265537732
 20
75.02023963353643
 30
0.0
 11
405.3061782835665
 21
75.02023963353675
 31
0.0
  0
LINE
  5
10E
330
108
100
AcDbEntity
  8
0
 62
    18
420
        0
370
     0
100
AcDbLine
 10
404.7770913478952
 20
78.32703298148103
 30
0.0
 11
404.7770913478952
 21
85.57739353326338
 31
0.0
  0
LINE
  5
10F
330
108
100
AcDbEntity
  8
0
 62
    18
420
        0
370
     0
100
AcDbLine
 10
404.7770913478952
 20
78.32703298148103
 30
0.0
 11
404.7770913478952
 21
75.02023963353675
 31
0.0
  0
LINE
  5
110
330
108
100
AcDbEntity
  8
0
 62
    18
420
        0
370
     0
100
AcDbLine
 10
404.7770913478952
 20
75.02023963353675
 30
0.0
 11
404.7770913478959
 21
71.66053759202566
 31
0.0
  0
MTEXT
  5
111
330
108
100
AcDbEntity
  8
0
100
AcDbMText
 10
404.24179291679
 20
79.42013073109196
 30
0.0
 40
0.2
 41
0.0
 46
0.0
 71
     7
 72
     1
  1
\C18;\c0;\FMyriad Pro|b0|i0|c1;\H1.851804;\W0.750000;12.50
 11
-0.0000000000000266
 21
1.0
 31
0.0
 73
     1
 44
1.0
  0
ENDBLK
  5
10B
330
108
100
AcDbEntity
  8
0
100
AcDbBlockEnd
  0
BLOCK
  5
114
330
112
100
AcDbEntity
  8
0
100
AcDbBlockBegin
  2
Block_6
 70
     0
 10
0.0
 20
0.0
 30
0.0
  3
Block_6
  1

  0
LINE
  5
116
330
112
100
AcDbEntity
  8
0
 62
    18
420
        0
370
     0
100
AcDbLine
 10
398.428048119843
 20
61.7930662417603
 30
0.0
 11
405.3061782835665
 21
61.7930662417603
 31
0.0
  0
LINE
  5
117
330
112
100
AcDbEntity
  8
0
 62
    18
420
        0
370
     0
100
AcDbLine
 10
394.0366265537732
 20
55.17947954587304
 30
0.0
 11
405.3061782835665
 21
55.17947954587304
 31
0.0
  0
LINE
  5
118
330
112
100
AcDbEntity
  8
0
 62
    18
420
        0
370
     0
100
AcDbLine
 10
404.7770913478952
 20
61.7930662417603
 30
0.0
 11
404.7770913478952
 21
55.17947954587304
 31
0.0
  0
MTEXT
  5
119
330
112
100
AcDbEntity
  8
0
100
AcDbMText
 10
404.2417929168387
 20
56.96913247275742
 30
0.0
 40
0.2
 41
0.0
 46
0.0
 71
     7
 72
     1
  1
\C18;\c0;\FMyriad Pro|b0|i0|c1;\H1.851804;\W0.750000;25
 11
-0.000000000000007
 21
1.0
 31
0.0
 73
     1
 44
1.0
  0
ENDBLK
  5
115
330
112
100
AcDbEntity
  8
0
100
AcDbBlockEnd
  0
BLOCK
  5
11C
330
11A
100
AcDbEntity
  8
0
100
AcDbBlockBegin
  2
Block_7
 70
     0
 10
0.0
 20
0.0
 30
0.0
  3
Block_7
  1

  0
LINE
  5
11E
330
11A
100
AcDbEntity
  8
0
 62
    18
420
        0
370
     0
100
AcDbLine
 10
394.0366265537738
 20
55.17947954587304
 30
0.0
 11
405.3061782835665
 21
55.1794795458724
 31
0.0
  0
LINE
  5
11F
330
11A
100
AcDbEntity
  8
0
 62
    18
420
        0
370
     0
100
AcDbLine
 10
395.7826134414878
 20
51.87268619792845
 30
0.0
 11
405.3061782835665
 21
51.87268619792845
 31
0.0
  0
LINE
  5
120
330
11A
100
AcDbEntity
  8
0
 62
    18
420
        0
370
     0
100
AcDbLine
 10
404.7770913478952
 20
55.1794795458724
 30
0.0
 11
404.7770913478952
 21
58.53918158738348
 31
0.0
  0
LINE
  5
121
330
11A
100
AcDbEntity
  8
0
 62
    18
420
        0
370
     0
100
AcDbLine
 10
404.7770913478952
 20
55.1794795458724
 30
0.0
 11
404.7770913478952
 21
51.87268619792845
 31
0.0
  0
LINE
  5
122
330
11A
100
AcDbEntity
  8
0
 62
    18
420
        0
370
     0
100
AcDbLine
 10
404.7770913478952
 20
51.87268619792845
 30
0.0
 11
404.7770913478952
 21
43.23991783675333
 31
0.0
  0
MTEXT
  5
123
330
11A
100
AcDbEntity
  8
0
100
AcDbMText
 10
404.2417929168612
 20
43.24008245446262
 30
0.0
 40
0.2
 41
0.0
 46
0.0
 71
     7
 72
     1
  1
\C18;\c0;\FMyriad Pro|b0|i0|c1;\H1.851804;\W0.750000;12.50
 11
0.0000000000000018
 21
1.0
 31
0.0
 73
     1
 44
1.0
  0
ENDBLK
  5
11D
330
11A
100
AcDbEntity
  8
0
100
AcDbBlockEnd
  0
BLOCK
  5
126
330
124
100
AcDbEntity
  8
0
100
AcDbBlockBegin
  2
Block_8
 70
     0
 10
0.0
 20
0.0
 30
0.0
  3
Block_8
  1

  0
LINE
  5
128
330
124
100
AcDbEntity
  8
0
 62
    18
420
        0
370
     0
100
AcDbLine
 10
392.3766162931054
 20
48.50637056972156
 30
0.0
 11
392.3766162931054
 21
39.86241275819597
 31
0.0
  0
LINE
  5
129
330
124
100
AcDbEntity
  8
0
 62
    18
420
        0
370
     0
100
AcDbLine
 10
385.802711117393
 20
48.50637056972156
 30
0.0
 11
385.802711117393
 21
39.86241275819597
 31
0.0
  0
LINE
  5
12A
330
124
100
AcDbEntity
  8
0
 62
    18
420
        0
370
     0
100
AcDbLine
 10
392.3766162931054
 20
40.39149969386726
 30
0.0
 11
385.802711117393
 21
40.39149969386726
 31
0.0
  0
LINE
  5
12B
330
124
100
AcDbEntity
  8
0
 62
    18
420
        0
370
     0
100
AcDbLine
 10
385.802711117393
 20
40.39149969386726
 30
0.0
 11
378.0261417440605
 21
40.39149969386726
 31
0.0
  0
MTEXT
  5
12C
330
124
100
AcDbEntity
  8
0
100
AcDbMText
 10
378.0261504181888
 20
40.92679772943301
 30
0.0
 40
0.2
 41
0.0
 46
0.0
 71
     7
 72
     1
  1
\C18;\c0;\FMyriad Pro|b0|i0|c1;\H1.851804;\W0.750000;25
 73
     1
 44
1.0
  0
ENDBLK
  5
127
330
124
100
AcDbEntity
  8
0
100
AcDbBlockEnd
  0
BLOCK
  5
21E
330
21C
100
AcDbEntity
  8
0
100
AcDbBlockBegin
  2
Block_9
 70
     0
 10
0.0
 20
0.0
 30
0.0
  3
Block_9
  1

  0
LINE
  5
220
330
21C
100
AcDbEntity
  8
0
 62
    18
420
        0
370
     0
100
AcDbLine
 10
362.0259635176223
 20
80.31110899024707
 30
0.0
 11
362.0259635176223
 21
86.29410933913341
 31
0.0
  0
LINE
  5
221
330
21C
100
AcDbEntity
  8
0
 62
    18
420
        0
370
     0
100
AcDbLine
 10
358.1371745404402
 20
80.31110899024707
 30
0.0
 11
358.1371745404402
 21
86.29410933913341
 31
0.0
  0
LINE
  5
222
330
21C
100
AcDbEntity
  8
0
 62
    18
420
        0
370
     0
100
AcDbLine
 10
362.0259635176223
 20
85.76502240346213
 30
0.0
 11
365.3856655591333
 21
85.76502240346243
 31
0.0
  0
LINE
  5
223
330
21C
100
AcDbEntity
  8
0
 62
    18
420
        0
370
     0
100
AcDbLine
 10
362.0259635176223
 20
85.76502240346213
 30
0.0
 11
358.1371745404402
 21
85.76502240346213
 31
0.0
  0
LINE
  5
224
330
21C
100
AcDbEntity
  8
0
 62
    18
420
        0
370
     0
100
AcDbLine
 10
358.1371745404402
 20
85.76502240346213
 30
0.0
 11
345.0972540787516
 21
85.76502240346213
 31
0.0
  0
MTEXT
  5
225
330
21C
100
AcDbEntity
  8
0
100
AcDbMText
 10
345.0972602829206
 20
86.30032015868208
 30
0.0
 40
0.2
 41
0.0
 46
0.0
 71
     7
 72
     1
  1
\C18;\c0;\FMyriad Pro|b0|i0|c1;\H1.851804;\W0.750000;∅
 73
     1
 44
1.0
  0
MTEXT
  5
226
330
21C
100
AcDbEntity
  8
0
100
AcDbMText
 10
347.8900054061916
 20
86.3286130053547
 30
0.0
 40
0.2
 41
0.0
 46
0.0
 71
     7
 72
     1
  1
\C18;\c0;\FMyriad Pro|b0|i0|c1;\H1.851804;\W0.750000;14.70
 73
     1
 44
1.0
  0
ENDBLK
  5
21F
330
21C
100
AcDbEntity
  8
0
100
AcDbBlockEnd
  0
ENDSEC
  0
SECTION
  2
ENTITIES
  0
INSERT
  5
79
330
70
100
AcDbEntity
  8
0
100
AcDbBlockReference
  2
Block_0
 10
0.0
 20
0.0
 30
0.0
  0
INSERT
  5
81
330
70
100
AcDbEntity
  8
0
100
AcDbBlockReference
  2
Block_1
 10
0.0
 20
0.0
 30
0.0
  0
LINE
  5
88
330
70
100
AcDbEntity
  8
0
 62
    18
420
        0
370
    70
100
AcDbLine
 10
330.4927306652902
 20
2.31530046585392
 30
0.0
 11
330.4927306652902
 21
149.9305555180729
 31
0.0
  0
LINE
  5
89
330
70
100
AcDbEntity
  8
0
 62
    18
420
        0
370
    70
100
AcDbLine
 10
421.550210349921
 20
2.31530046585392
 30
0.0
 11
330.4927306652902
 21
2.31530046585392
 31
0.0
  0
LINE
  5
8A
330
70
100
AcDbEntity
  8
0
 62
    18
420
        0
370
    25
100
AcDbLine
 10
408.3230369581452
 20
6.283452483386661
 30
0.0
 11
421.5205481338103
 21
6.283452483386661
 31
0.0
  0
LINE
  5
8B
330
70
100
AcDbEntity
  8
0
 62
    18
420
        0
370
    25
100
AcDbLine
 10
330.4927306652902
 20
20.19843889153514
 30
0.0
 11
421.550210349921
 21
20.19843889153514
 31
0.0
  0
LINE
  5
8C
330
70
100
AcDbEntity
  8
0
 62
    18
420
        0
370
    25
100
AcDbLine
 10
408.3230369581452
 20
10.2516045009194
 30
0.0
 11
421.5205481338103
 21
10.2516045009194
 31
0.0
  0
LINE
  5
8D
330
70
100
AcDbEntity
  8
0
 62
    18
420
        0
370
    25
100
AcDbLine
 10
330.4927306652902
 20
20.19843889153514
 30
0.0
 11
330.4927306652902
 21
2.31530046585392
 31
0.0
  0
LINE
  5
8E
330
70
100
AcDbEntity
  8
0
 62
    18
420
        0
370
    25
100
AcDbLine
 10
330.4927306652902
 20
14.21975651845214
 30
0.0
 11
421.550210349921
 21
14.21975651845214
 31
0.0
  0
LINE
  5
8F
330
70
100
AcDbEntity
  8
0
 62
    18
420
        0
370
    25
100
AcDbLine
 10
364.2199215246933
 20
20.19843889153514
 30
0.0
 11
364.2199215246933
 21
14.21975651845214
 31
0.0
  0
LINE
  5
90
330
70
100
AcDbEntity
  8
0
 62
    18
420
        0
370
    70
100
AcDbLine
 10
421.550210349921
 20
2.31530046585392
 30
0.0
 11
421.550210349921
 21
149.9305555180729
 31
0.0
  0
LINE
  5
91
330
70
100
AcDbEntity
  8
0
 62
    18
420
        0
370
    70
100
AcDbLine
 10
421.550210349921
 20
149.9305555180729
 30
0.0
 11
330.4927306652902
 21
149.9305555180729
 31
0.0
  0
LINE
  5
92
330
70
100
AcDbEntity
  8
0
 62
    18
420
        0
370
    25
100
AcDbLine
 10
408.3230369581452
 20
14.21975651845214
 30
0.0
 11
408.3230369581452
 21
2.31530046585392
 31
0.0
  0
MTEXT
  5
93
330
70
100
AcDbEntity
  8
0
100
AcDbMText
 10
329.9367838564452
 20
4.297412108310272
 30
0.0
 40
0.2
 41
0.0
 46
0.0
 71
     7
 72
     1
  1
\C18;\c0;\FMyriad Pro|b0|i0|c1;\H1.481443;\W0.605000;This work  is copyright and no part may be reproduced, by any process, nor may any other exclusive right be exercised without the permission of ASSA ABLOY.
 11
-0.0000000000000033
 21
1.0
 31
0.0
 73
     1
 44
1.0
  0
MTEXT
  5
94
330
70
100
AcDbEntity
  8
0
100
AcDbMText
 10
364.4647042952771
 20
18.55864325165374
 30
0.0
 40
0.2
 41
0.0
 46
0.0
 71
     7
 72
     1
  1
\C18;\c0;\FMyriad Pro|b0|i0|c1;\H1.119901;\W0.605000;Alternative ID:
 73
     1
 44
1.0
  0
MTEXT
  5
95
330
70
100
AcDbEntity
  8
0
100
AcDbMText
 10
331.0430578463842
 20
18.55864325165374
 30
0.0
 40
0.2
 41
0.0
 46
0.0
 71
     7
 72
     1
  1
\C18;\c0;\FMyriad Pro|b0|i0|c1;\H1.119901;\W0.605000;Document ID:
 73
     1
 44
1.0
  0
MTEXT
  5
96
330
70
100
AcDbEntity
  8
0
100
AcDbMText
 10
354.1787257686602
 20
5.405689569287446
 30
0.0
 40
0.2
 41
0.0
 46
0.0
 71
     7
 72
     1
  1
\C18;\c0;\FMyriad Pro|b0|i0|c1;\H0.839926;\W0.605000;P.C.HENDERSON LIMITED, DURHAM ROAD, BOWBURN,
 73
     1
 44
1.0
  0
MTEXT
  5
97
330
70
100
AcDbEntity
  8
0
100
AcDbMText
 10
355.6500399230233
 20
4.285788948259201
 30
0.0
 40
0.2
 41
0.0
 46
0.0
 71
     7
 72
     1
  1
\C18;\c0;\FMyriad Pro|b0|i0|c1;\H0.839926;\W0.605000;COUNTY DURHAM DH6 5NG UNITED KINGDOM
 73
     1
 44
1.0
  0
MTEXT
  5
98
330
70
100
AcDbEntity
  8
0
100
AcDbMText
 10
359.0250492469951
 20
3.165888327230955
 30
0.0
 40
0.2
 41
0.0
 46
0.0
 71
     7
 72
     1
  1
\C18;\c0;\FMyriad Pro|b0|i0|c1;\H0.839926;\W0.605000;TELEPHONE: (0191) 3770701
 73
     1
 44
1.0
  0
MTEXT
  5
99
330
70
100
AcDbEntity
  8
0
100
AcDbMText
 10
408.7695365731549
 20
5.223215915115874
 30
0.0
 40
0.2
 41
0.0
 46
0.0
 71
     7
 72
     1
  1
\C18;\c0;\FMyriad Pro|b0|i0|c1;\H0.793630;\W0.605000;Revision:
 73
     1
 44
1.0
  0
MTEXT
  5
9A
330
70
100
AcDbEntity
  8
0
100
AcDbMText
 10
408.7695365731549
 20
13.15952055919995
 30
0.0
 40
0.2
 41
0.0
 46
0.0
 71
     7
 72
     1
  1
\C18;\c0;\FMyriad Pro|b0|i0|c1;\H0.793630;\W0.605000;Drawing Size:
 73
     1
 44
1.0
  0
MTEXT
  5
9B
330
70
100
AcDbEntity
  8
0
100
AcDbMText
 10
408.7695365731549
 20
9.191368068940358
 30
0.0
 40
0.2
 41
0.0
 46
0.0
 71
     7
 72
     1
  1
\C18;\c0;\FMyriad Pro|b0|i0|c1;\H0.793630;\W0.605000;Scale:
 73
     1
 44
1.0
  0
MTEXT
  5
9C
330
70
100
AcDbEntity
  8
0
100
AcDbMText
 10
414.2387117833761
 20
10.86220371716529
 30
0.0
 40
0.2
 41
0.0
 46
0.0
 71
     7
 72
     1
  1
\C18;\c0;\FMyriad Pro|b0|i0|c1;\H1.322717;\W0.605000;A4
 73
     1
 44
1.0
  0
MTEXT
  5
9D
330
70
100
AcDbEntity
  8
0
100
AcDbMText
 10
414.6156913568495
 20
3.098884584393905
 30
0.0
 40
0.2
 41
0.0
 46
0.0
 71
     7
 72
     1
  1
\C18;\c0;\FMyriad Pro|b0|i0|c1;\H1.322717;\W0.605000;A
 73
     1
 44
1.0
  0
MTEXT
  5
9E
330
70
100
AcDbEntity
  8
0
100
AcDbMText
 10
407.4100588309817
 20
-0.0000000000006417
 30
0.0
 40
0.2
 41
0.0
 46
0.0
 71
     7
 72
     1
  1
\C18;\c0;\FMyriad Pro|b0|i0|c1;\H1.851804;\W0.687500;SHEET 1 OF 1
 73
     1
 44
1.0
  0
MTEXT
  5
9F
330
70
100
AcDbEntity
  8
0
100
AcDbMText
 10
414.0802804547481
 20
7.11112117589556
 30
0.0
 40
0.2
 41
0.0
 46
0.0
 71
     7
 72
     1
  1
\C18;\c0;\FMyriad Pro|b0|i0|c1;\H1.322717;\W0.605000;1:2
 73
     1
 44
1.0
  0
MTEXT
  5
A0
330
70
100
AcDbEntity
  8
0
100
AcDbMText
 10
340.6752003135943
 20
15.67401231797752
 30
0.0
 40
0.2
 41
0.0
 46
0.0
 71
     7
 72
     1
  1
\C18;\c0;\FMyriad Pro|b0|i0|c1;\H1.851804;\W0.750000;SFR9 PIVOT HINGE
 73
     1
 44
1.0
  0
MTEXT
  5
A1
330
70
100
AcDbEntity
  8
0
100
AcDbMText
 10
375.3898341617949
 20
15.67401231797752
 30
0.0
 40
0.2
 41
0.0
 46
0.0
 71
     7
 72
     1
  1
\C18;\c0;\FMyriad Pro|b0|i0|c1;\H1.851804;\W0.750000;260309
 73
     1
 44
1.0
  0
LINE
  5
A2
330
70
100
AcDbEntity
  8
0
 62
    18
420
        0
370
    25
100
AcDbLine
 10
387.4521909525828
 20
47.76181044387846
 30
0.0
 11
387.4362670312769
 21
47.73422940312113
 31
0.0
  0
LINE
  5
A3
330
70
100
AcDbEntity
  8
0
 62
    18
420
        0
370
    25
100
AcDbLine
 10
387.4362670312769
 20
47.06957377989548
 30
0.0
 11
387.4521788590835
 21
47.04201368569316
 31
0.0
  0
LINE
  5
A4
330
70
100
AcDbEntity
  8
0
 62
    18
420
        0
370
    25
100
AcDbLine
 10
387.4362670312769
 20
46.97307663014718
 30
0.0
 11
387.4362670312769
 21
45.81464078449508
 31
0.0
  0
LINE
  5
A5
330
70
100
AcDbEntity
  8
0
 62
    18
420
        0
370
    25
100
AcDbLine
 10
387.4362670312769
 20
48.98916239852153
 30
0.0
 11
387.4362670312769
 21
47.83072655287007
 31
0.0
  0
LINE
  5
A6
330
70
100
AcDbEntity
  8
0
 62
    18
420
        0
370
    25
100
AcDbLine
 10
390.7430603792209
 20
47.83080679843868
 30
0.0
 11
390.7430603792209
 21
48.98916239852153
 31
0.0
  0
LINE
  5
A7
330
70
100
AcDbEntity
  8
0
 62
    18
420
        0
370
    25
100
AcDbLine
 10
390.7430603792209
 20
45.81464078449508
 30
0.0
 11
390.7430603792209
 21
46.97302850465201
 31
0.0
  0
LINE
  5
A8
330
70
100
AcDbEntity
  8
0
 62
    18
420
        0
370
    25
100
AcDbLine
 10
387.4362670312769
 20
45.81464078449508
 30
0.0
 11
387.5685387651951
 21
45.68236905057758
 31
0.0
  0
LINE
  5
A9
330
70
100
AcDbEntity
  8
0
 62
    18
420
        0
370
    25
100
AcDbLine
 10
390.6107886453034
 20
45.68236905057758
 30
0.0
 11
390.7430603792209
 21
45.81464078449508
 31
0.0
  0
LINE
  5
AA
330
70
100
AcDbEntity
  8
0
 62
    18
420
        0
370
    25
100
AcDbLine
 10
390.7430603792209
 20
48.98916239852153
 30
0.0
 11
390.6107886453034
 21
49.12143413243967
 31
0.0
  0
LINE
  5
AB
330
70
100
AcDbEntity
  8
0
 62
    18
420
        0
370
    25
100
AcDbLine
 10
387.5685387651951
 20
49.12143413243967
 30
0.0
 11
387.4362670312769
 21
48.98916239852153
 31
0.0
  0
LINE
  5
AC
330
70
100
AcDbEntity
  8
0
 62
    18
420
        0
370
    25
100
AcDbLine
 10
387.0129974827406
 20
78.3270329814807
 30
0.0
 11
387.0129974827406
 21
51.87268619792909
 31
0.0
  0
LINE
  5
AD
330
70
100
AcDbEntity
  8
0
 62
    18
420
        0
370
    25
100
AcDbLine
 10
387.0526790029154
 20
78.56512210253246
 30
0.0
 11
387.0526790029154
 21
78.35348732826393
 31
0.0
  0
LINE
  5
AE
330
70
100
AcDbEntity
  8
0
 62
    18
420
        0
370
    25
100
AcDbLine
 10
391.1266484075824
 20
78.35348732826393
 30
0.0
 11
391.1266484075824
 21
78.56512210253246
 31
0.0
  0
SPLINE
  5
AF
330
70
100
AcDbEntity
  8
0
 62
    18
420
        0
370
    25
100
AcDbSpline
210
0.0
220
0.0
230
1.0
 70
     8
 71
     3
 72
     8
 73
     4
 74
     0
 42
0.0000000001
 43
0.0000000001
 40
0.0
 40
0.0
 40
0.0
 40
0.0
 40
1.0
 40
1.0
 40
1.0
 40
1.0
 10
387.0791333496993
 20
78.59157644931602
 30
0.0
 10
387.064523017404
 20
78.59157644931602
 30
0.0
 10
387.0526790029154
 20
78.57973243482774
 30
0.0
 10
387.0526790029154
 20
78.56512210253246
 30
0.0
  0
SPLINE
  5
B0
330
70
100
AcDbEntity
  8
0
 62
    18
420
        0
370
    25
100
AcDbSpline
210
0.0
220
0.0
230
1.0
 70
     8
 71
     3
 72
     8
 73
     4
 74
     0
 42
0.0000000001
 43
0.0000000001
 40
0.0
 40
0.0
 40
0.0
 40
0.0
 40
1.0
 40
1.0
 40
1.0
 40
1.0
 10
391.1266484075824
 20
78.56512210253246
 30
0.0
 10
391.1266484075824
 20
78.57973243482774
 30
0.0
 10
391.1148043930944
 20
78.59157644931602
 30
0.0
 10
391.1001940607992
 20
78.59157644931602
 30
0.0
  0
SPLINE
  5
B1
330
70
100
AcDbEntity
  8
0
 62
    18
420
        0
370
    25
100
AcDbSpline
210
0.0
220
0.0
230
1.0
 70
     8
 71
     3
 72
     8
 73
     4
 74
     0
 42
0.0000000001
 43
0.0000000001
 40
0.0
 40
0.0
 40
0.0
 40
0.0
 40
1.0
 40
1.0
 40
1.0
 40
1.0
 10
387.0526790029154
 20
78.35348732826393
 30
0.0
 10
387.0526790029154
 20
78.33887699596866
 30
0.0
 10
387.064523017404
 20
78.32703298148039
 30
0.0
 10
387.0791333496993
 20
78.32703298148039
 30
0.0
  0
SPLINE
  5
B2
330
70
100
AcDbEntity
  8
0
 62
    18
420
        0
370
    25
100
AcDbSpline
210
0.0
220
0.0
230
1.0
 70
     8
 71
     3
 72
     8
 73
     4
 74
     0
 42
0.0000000001
 43
0.0000000001
 40
0.0
 40
0.0
 40
0.0
 40
0.0
 40
1.0
 40
1.0
 40
1.0
 40
1.0
 10
391.1001940607992
 20
78.32703298148039
 30
0.0
 10
391.1148043930944
 20
78.32703298148039
 30
0.0
 10
391.1266484075824
 20
78.33887699596866
 30
0.0
 10
391.1266484075824
 20
78.35348732826393
 30
0.0
  0
LINE
  5
B3
330
70
100
AcDbEntity
  8
0
 62
    18
420
        0
370
    25
100
AcDbLine
 10
391.0340581938397
 20
78.59157644931602
 30
0.0
 11
391.0340581938397
 21
79.78202205457577
 31
0.0
  0
LINE
  5
B4
330
70
100
AcDbEntity
  8
0
 62
    18
420
        0
370
    25
100
AcDbLine
 10
387.1452692166581
 20
79.78202205457577
 30
0.0
 11
387.1452692166581
 21
78.59157644931602
 31
0.0
  0
LINE
  5
B5
330
70
100
AcDbEntity
  8
0
 62
    18
420
        0
370
    25
100
AcDbLine
 10
387.8463094064223
 20
51.87268619792909
 30
0.0
 11
387.8463094064223
 21
49.22725151957329
 31
0.0
  0
LINE
  5
B6
330
70
100
AcDbEntity
  8
0
 62
    18
420
        0
370
    25
100
AcDbLine
 10
390.3330180040761
 20
49.22725151957329
 30
0.0
 11
390.3330180040761
 21
51.87268619792909
 31
0.0
  0
LINE
  5
B7
330
70
100
AcDbEntity
  8
0
 62
    18
420
        0
370
    25
100
AcDbLine
 10
387.8992180999895
 20
49.20079717279005
 30
0.0
 11
387.8992180999895
 21
49.12143413243967
 31
0.0
  0
LINE
  5
B8
330
70
100
AcDbEntity
  8
0
 62
    18
420
        0
370
    25
100
AcDbLine
 10
390.280109310509
 20
49.12143413243967
 30
0.0
 11
390.280109310509
 21
49.20079717279005
 31
0.0
  0
LINE
  5
B9
330
70
100
AcDbEntity
  8
0
 62
    18
420
        0
370
    25
100
AcDbLine
 10
387.8463094064223
 20
49.22725151957329
 30
0.0
 11
387.8727637532056
 21
49.20079717279005
 31
0.0
  0
LINE
  5
BA
330
70
100
AcDbEntity
  8
0
 62
    18
420
        0
370
    25
100
AcDbLine
 10
390.3065636572922
 20
49.20079717279005
 30
0.0
 11
390.3330180040761
 21
49.22725151957329
 31
0.0
  0
LINE
  5
BB
330
70
100
AcDbEntity
  8
0
 62
    18
420
        0
370
    25
100
AcDbLine
 10
387.4362670312769
 20
47.73422940312113
 30
0.0
 11
387.4362670312769
 21
47.06957377989548
 31
0.0
  0
SPLINE
  5
BC
330
70
100
AcDbEntity
  8
0
 62
    18
420
        0
370
    25
100
AcDbSpline
210
0.0
220
0.0
230
1.0
 70
     8
 71
     3
 72
    41
 73
    37
 74
     0
 42
0.0000000001
 43
0.0000000001
 40
0.0
 40
0.0
 40
0.0
 40
0.0
 40
1.0
 40
1.0
 40
1.0
 40
2.0
 40
2.0
 40
2.0
 40
3.0
 40
3.0
 40
3.0
 40
4.0
 40
4.0
 40
4.0
 40
5.0
 40
5.0
 40
5.0
 40
6.0
 40
6.0
 40
6.0
 40
7.0
 40
7.0
 40
7.0
 40
8.0
 40
8.0
 40
8.0
 40
9.0
 40
9.0
 40
9.0
 40
10.0
 40
10.0
 40
10.0
 40
11.0
 40
11.0
 40
11.0
 40
12.0
 40
12.0
 40
12.0
 40
12.0
 10
387.4362670312769
 20
47.83072655287007
 30
0.0
 10
387.4366891672263
 20
47.82914048239144
 30
0.0
 10
387.437111303175
 20
47.82755441191215
 30
0.0
 10
387.4383853740171
 20
47.82252723549901
 30
0.0
 10
387.4396681087132
 20
47.81746587360395
 30
0.0
 10
387.4418144042422
 20
47.8089164466776
 30
0.0
 10
387.4444662264864
 20
47.79792928338582
 30
0.0
 10
387.4497362936396
 20
47.7760940761055
 30
0.0
 10
387.4570029448139
 20
47.74463099886179
 30
0.0
 10
387.4643321079266
 20
47.70504151306836
 30
0.0
 10
387.4716494766572
 20
47.66551573626057
 30
0.0
 10
387.4790291562941
 20
47.61788968454179
 30
0.0
 10
387.4843565376395
 20
47.5662592367223
 30
0.0
 10
387.487047693461
 20
47.54017783364431
 30
0.0
 10
387.4892151396021
 20
47.51307458056861
 30
0.0
 10
387.4906751480477
 20
47.48534638336043
 30
0.0
 10
387.4921181734155
 20
47.45794072547409
 30
0.0
 10
387.4928701234491
 20
47.42992457781854
 30
0.0
 10
387.492871126648
 20
47.40190755300403
 30
0.0
 10
387.492872129003
 20
47.37391407092602
 30
0.0
 10
387.4921234460364
 20
47.3459197131624
 30
0.0
 10
387.4906849129283
 20
47.31853564659616
 30
0.0
 10
387.4892267223024
 20
47.29077737748568
 30
0.0
 10
387.4870596991501
 20
47.26364619275879
 30
0.0
 10
387.4843678976889
 20
47.2375280845689
 30
0.0
 10
387.4790417233069
 20
47.18584908789266
 30
0.0
 10
387.4716609805935
 20
47.13813640410072
 30
0.0
 10
387.4643342868241
 20
47.09865514134889
 30
0.0
 10
387.457003507308
 20
47.0591518617856
 30
0.0
 10
387.4497268370325
 20
47.02788918636132
 30
0.0
 10
387.4444591587093
 20
47.00604168406772
 30
0.0
 10
387.4418049498406
 20
46.99503345030949
 30
0.0
 10
387.4396607876183
 20
46.98641555837062
 30
0.0
 10
387.4383798431964
 20
46.98131789362747
 30
0.0
 10
387.4371102331932
 20
46.97626533549736
 30
0.0
 10
387.4366886322347
 20
46.97467098282227
 30
0.0
 10
387.4362670312769
 20
46.97307663014718
 30
0.0
  0
SPLINE
  5
BD
330
70
100
AcDbEntity
  8
0
 62
    18
420
        0
370
    25
100
AcDbSpline
210
0.0
220
0.0
230
1.0
 70
     8
 71
     3
 72
    11
 73
     7
 74
     0
 42
0.0000000001
 43
0.0000000001
 40
0.0
 40
0.0
 40
0.0
 40
0.0
 40
1.0
 40
1.0
 40
1.0
 40
2.0
 40
2.0
 40
2.0
 40
2.0
 10
390.6864823280158
 20
47.4019015915083
 30
0.0
 10
390.6866594202999
 20
47.37365420905413
 30
0.0
 10
390.686836512584
 20
47.3454068266006
 30
0.0
 10
390.6886638190327
 20
47.31856136955006
 30
0.0
 10
390.6890548118062
 20
47.31281718815226
 30
0.0
 10
390.6895213581508
 20
47.3071371926489
 30
0.0
 10
390.689987904496
 20
47.30145719714555
 30
0.0
  0
SPLINE
  5
BE
330
70
100
AcDbEntity
  8
0
 62
    18
420
        0
370
    25
100
AcDbSpline
210
0.0
220
0.0
230
1.0
 70
     8
 71
     3
 72
    44
 73
    40
 74
     0
 42
0.0000000001
 43
0.0000000001
 40
0.0
 40
0.0
 40
0.0
 40
0.0
 40
1.0
 40
1.0
 40
1.0
 40
2.0
 40
2.0
 40
2.0
 40
3.0
 40
3.0
 40
3.0
 40
4.0
 40
4.0
 40
4.0
 40
5.0
 40
5.0
 40
5.0
 40
6.0
 40
6.0
 40
6.0
 40
7.0
 40
7.0
 40
7.0
 40
8.0
 40
8.0
 40
8.0
 40
9.0
 40
9.0
 40
9.0
 40
10.0
 40
10.0
 40
10.0
 40
11.0
 40
11.0
 40
11.0
 40
12.0
 40
12.0
 40
12.0
 40
13.0
 40
13.0
 40
13.0
 40
13.0
 10
390.7430576318288
 20
46.97302850465201
 30
0.0
 10
390.7430585475282
 20
46.97302491285009
 30
0.0
 10
390.7430594632282
 20
46.97302132104816
 30
0.0
 10
390.7430603756344
 20
46.97301774199167
 30
0.0
 10
390.7437593761219
 20
46.97027580218261
 30
0.0
 10
390.7425252158331
 20
46.97501441784703
 30
0.0
 10
390.7409509990385
 20
46.98125806270634
 30
0.0
 10
390.7393578121137
 20
46.98757694673118
 30
0.0
 10
390.7374163235866
 20
46.99543735127241
 30
0.0
 10
390.7348683221194
 20
47.00604996965171
 30
0.0
 10
390.7298166957645
 20
47.02709037461014
 30
0.0
 10
390.7223810863536
 20
47.05894873698174
 30
0.0
 10
390.7149955065674
 20
47.09866692504162
 30
0.0
 10
390.7076141576152
 20
47.13836236051405
 30
0.0
 10
390.7002827809847
 20
47.18590861924301
 30
0.0
 10
390.6949705127414
 20
47.23754911032818
 30
0.0
 10
390.6922864640729
 20
47.2636407128139
 30
0.0
 10
390.6901178581276
 20
47.29077750053404
 30
0.0
 10
390.6886568119962
 20
47.31853009769045
 30
0.0
 10
390.6872137610374
 20
47.34594087623053
 30
0.0
 10
390.6864609477165
 20
47.37395238822463
 30
0.0
 10
390.6864594233174
 20
47.40196865077511
 30
0.0
 10
390.6864579010918
 20
47.42994496214829
 30
0.0
 10
390.6872055266398
 20
47.45792601053994
 30
0.0
 10
390.6886457144582
 20
47.48529143544814
 30
0.0
 10
390.6901059695165
 20
47.51303816379006
 30
0.0
 10
390.6922782213083
 20
47.54015199321841
 30
0.0
 10
390.694971702101
 20
47.56625862123987
 30
0.0
 10
390.7003064535633
 20
47.61796582938145
 30
0.0
 10
390.707685903101
 20
47.66572194736473
 30
0.0
 10
390.7150138476664
 20
47.70522518778053
 30
0.0
 10
390.7223351057701
 20
47.74469238304432
 30
0.0
 10
390.7296049528508
 20
47.77592175472095
 30
0.0
 10
390.7348683960951
 20
47.79776255466894
 30
0.0
 10
390.7375267101782
 20
47.80879330077789
 30
0.0
 10
390.7396732351459
 20
47.81742923048403
 30
0.0
 10
390.740953743364
 20
47.8225400514564
 30
0.0
 10
390.7422191609395
 20
47.82759064198773
 30
0.0
 10
390.742638853306
 20
47.8291987202132
 30
0.0
 10
390.7430585456724
 20
47.83080679843868
 30
0.0
  0
SPLINE
  5
BF
330
70
100
AcDbEntity
  8
0
 62
    18
420
        0
370
    25
100
AcDbSpline
210
0.0
220
0.0
230
1.0
 70
     8
 71
     3
 72
    11
 73
     7
 74
     0
 42
0.0000000001
 43
0.0000000001
 40
0.0
 40
0.0
 40
0.0
 40
0.0
 40
1.0
 40
1.0
 40
1.0
 40
2.0
 40
2.0
 40
2.0
 40
2.0
 10
390.6946334018165
 20
47.56192866936918
 30
0.0
 10
390.6923271843554
 20
47.53666246118354
 30
0.0
 10
390.6900209668949
 20
47.5113962529979
 30
0.0
 10
390.6886638541381
 20
47.48531998853545
 30
0.0
 10
390.6872473324364
 20
47.45810220995115
 30
0.0
 10
390.6868648302261
 20
47.43000190072972
 30
0.0
 10
390.6864823280158
 20
47.4019015915083
 30
0.0
  0
LINE
  5
C0
330
70
100
AcDbEntity
  8
0
 62
    18
420
        0
370
    25
100
AcDbLine
 10
390.2231946503206
 20
47.5738548456013
 30
0.0
 11
390.2231946503206
 21
47.22994833741529
 31
0.0
  0
LINE
  5
C1
330
70
100
AcDbEntity
  8
0
 62
    18
420
        0
370
    25
100
AcDbLine
 10
387.9561327601772
 20
47.5738548456013
 30
0.0
 11
390.2231946503206
 21
47.5738548456013
 31
0.0
  0
LINE
  5
C2
330
70
100
AcDbEntity
  8
0
 62
    18
420
        0
370
    25
100
AcDbLine
 10
387.9561327601772
 20
47.22994833741529
 30
0.0
 11
387.9561327601772
 21
47.5738548456013
 31
0.0
  0
LINE
  5
C3
330
70
100
AcDbEntity
  8
0
 62
    18
420
        0
370
    25
100
AcDbLine
 10
390.2231946503206
 20
47.22994833741529
 30
0.0
 11
387.9561327601772
 21
47.22994833741529
 31
0.0
  0
LINE
  5
C4
330
70
100
AcDbEntity
  8
0
 62
    18
420
        0
370
    25
100
AcDbLine
 10
387.4362670312769
 20
48.98916239852153
 30
0.0
 11
390.7430603792209
 21
48.98916239852153
 31
0.0
  0
LINE
  5
C5
330
70
100
AcDbEntity
  8
0
 62
    18
420
        0
370
    25
100
AcDbLine
 10
390.7430603792209
 20
45.81464078449508
 30
0.0
 11
387.4362670312769
 21
45.81464078449508
 31
0.0
  0
LINE
  5
C6
330
70
100
AcDbEntity
  8
0
 62
    18
420
        0
370
    25
100
AcDbLine
 10
387.5685387651951
 20
45.68236905057758
 30
0.0
 11
390.6107886453034
 21
45.68236905057758
 31
0.0
  0
LINE
  5
C7
330
70
100
AcDbEntity
  8
0
 62
    18
420
        0
370
    25
100
AcDbLine
 10
390.6107886453034
 20
49.12143413243967
 30
0.0
 11
387.5685387651951
 21
49.12143413243967
 31
0.0
  0
LINE
  5
C8
330
70
100
AcDbEntity
  8
0
 62
    18
420
        0
370
    25
100
AcDbLine
 10
385.802711117393
 20
49.03545750539285
 30
0.0
 11
385.802711117393
 21
53.00360952292558
 31
0.0
  0
SPLINE
  5
C9
330
70
100
AcDbEntity
  8
0
 62
    18
420
        0
370
    25
100
AcDbSpline
210
0.0
220
0.0
230
1.0
 70
     8
 71
     3
 72
     8
 73
     4
 74
     0
 42
0.0000000001
 43
0.0000000001
 40
0.0
 40
0.0
 40
0.0
 40
0.0
 40
1.0
 40
1.0
 40
1.0
 40
1.0
 10
387.0129974827406
 20
55.55145463499703
 30
0.0
 10
386.2471472002582
 20
54.9272348166124
 30
0.0
 10
385.802711117393
 20
53.99162624183436
 30
0.0
 10
385.802711117393
 20
53.00360952292558
 30
0.0
  0
LINE
  5
CA
330
70
100
AcDbEntity
  8
0
 62
    18
420
        0
370
    25
100
AcDbLine
 10
392.3766162931054
 20
51.87268619792845
 30
0.0
 11
392.3766162931054
 21
49.03545750539285
 31
0.0
  0
SPLINE
  5
CB
330
70
100
AcDbEntity
  8
0
 62
    18
420
        0
370
    25
100
AcDbSpline
210
0.0
220
0.0
230
1.0
 70
     8
 71
     3
 72
     8
 73
     4
 74
     0
 42
0.0000000001
 43
0.0000000001
 40
0.0
 40
0.0
 40
0.0
 40
0.0
 40
1.0
 40
1.0
 40
1.0
 40
1.0
 10
390.7430603792209
 20
46.19462369235214
 30
0.0
 10
391.75445275034
 20
46.78326522949973
 30
0.0
 10
392.3766162931054
 20
47.86523812954354
 30
0.0
 10
392.3766162931054
 20
49.03545750539285
 30
0.0
  0
SPLINE
  5
CC
330
70
100
AcDbEntity
  8
0
 62
    18
420
        0
370
    25
100
AcDbSpline
210
0.0
220
0.0
230
1.0
 70
     8
 71
     3
 72
     8
 73
     4
 74
     0
 42
0.0000000001
 43
0.0000000001
 40
0.0
 40
0.0
 40
0.0
 40
0.0
 40
1.0
 40
1.0
 40
1.0
 40
1.0
 10
385.802711117393
 20
49.03545750539285
 30
0.0
 10
385.802711117393
 20
47.86523812954354
 30
0.0
 10
386.4248746601585
 20
46.78326522949973
 30
0.0
 10
387.4362670312769
 20
46.19462369235214
 30
0.0
  0
SPLINE
  5
CD
330
70
100
AcDbEntity
  8
0
 62
    18
420
        0
370
    25
100
AcDbSpline
210
0.0
220
0.0
230
1.0
 70
     8
 71
     3
 72
    11
 73
     7
 74
     0
 42
0.0000000001
 43
0.0000000001
 40
0.0
 40
0.0
 40
0.0
 40
0.0
 40
1.0
 40
1.0
 40
1.0
 40
2.0
 40
2.0
 40
2.0
 40
2.0
 10
387.0129974827406
 20
52.08460848062921
 30
0.0
 10
386.4247728213325
 20
51.7303079224685
 30
0.0
 10
386.2351398676105
 20
50.96624026606591
 30
0.0
 10
386.5894404257713
 20
50.3780156046585
 30
0.0
 10
386.8501828790757
 20
49.94512003682261
 30
0.0
 10
387.3470015009098
 20
49.71310696870934
 30
0.0
 10
387.8463094064223
 20
49.79106089804757
 30
0.0
  0
SPLINE
  5
CE
330
70
100
AcDbEntity
  8
0
 62
    18
420
        0
370
    25
100
AcDbSpline
210
0.0
220
0.0
230
1.0
 70
     8
 71
     3
 72
    14
 73
    10
 74
     0
 42
0.0000000001
 43
0.0000000001
 40
0.0
 40
0.0
 40
0.0
 40
0.0
 40
1.0
 40
1.0
 40
1.0
 40
2.0
 40
2.0
 40
2.0
 40
3.0
 40
3.0
 40
3.0
 40
3.0
 10
387.6545153922413
 20
51.73380087731514
 30
0.0
 10
387.2600364202685
 20
51.73380087731514
 30
0.0
 10
386.9402480290854
 20
51.41401248613197
 30
0.0
 10
386.9402480290854
 20
51.01953351415922
 30
0.0
 10
386.9402480290854
 20
50.62505454218646
 30
0.0
 10
387.2600364202685
 20
50.3052661510033
 30
0.0
 10
387.6545153922413
 20
50.3052661510033
 30
0.0
 10
387.7193408894056
 20
50.3052661510033
 30
0.0
 10
387.7838646566116
 20
50.31409111469692
 30
0.0
 10
387.8463094064223
 20
50.33149796115744
 30
0.0
  0
LWPOLYLINE
  5
CF
330
70
100
AcDbEntity
  8
0
 62
    18
420
        0
370
    25
100
AcDbPolyline
 90
        3
 70
     0
 43
0.0
 10
387.8463094064223
 20
51.70756906716099
 10
387.793862042125
 20
51.72007643021506
 10
387.6545153922413
 20
51.73380087731514
  0
LINE
  5
D0
330
70
100
AcDbEntity
  8
0
 62
    18
420
        0
370
    25
100
AcDbLine
 10
391.1663299277579
 20
51.87268619792909
 30
0.0
 11
391.1663299277579
 21
78.3270329814807
 31
0.0
  0
LINE
  5
D1
330
70
100
AcDbEntity
  8
0
 62
    18
420
        0
370
    25
100
AcDbLine
 10
391.1663299277579
 20
78.3270329814807
 30
0.0
 11
387.0129974827406
 21
78.3270329814807
 31
0.0
  0
LINE
  5
D2
330
70
100
AcDbEntity
  8
0
 62
    18
420
        0
370
    25
100
AcDbLine
 10
391.1663299277579
 20
51.87268619792909
 30
0.0
 11
387.0129974827406
 21
51.87268619792909
 31
0.0
  0
LINE
  5
D3
330
70
100
AcDbEntity
  8
0
 62
    18
420
        0
370
    25
100
AcDbLine
 10
391.4308733955936
 20
78.3270329814807
 30
0.0
 11
391.4308733955936
 21
51.87268619792845
 31
0.0
  0
LINE
  5
D4
330
70
100
AcDbEntity
  8
0
 62
    18
420
        0
370
    25
100
AcDbLine
 10
391.1663299277579
 20
78.32703298148039
 30
0.0
 11
391.4308733955936
 21
78.3270329814807
 31
0.0
  0
LINE
  5
D5
330
70
100
AcDbEntity
  8
0
 62
    18
420
        0
370
    25
100
AcDbLine
 10
391.4308733955936
 20
51.87268619792845
 30
0.0
 11
391.1663299277579
 21
51.87268619792845
 31
0.0
  0
SPLINE
  5
D6
330
70
100
AcDbEntity
  8
0
 62
    18
420
        0
370
    25
100
AcDbSpline
210
0.0
220
0.0
230
1.0
 70
     8
 71
     3
 72
     8
 73
     4
 74
     0
 42
0.0000000001
 43
0.0000000001
 40
0.0
 40
0.0
 40
0.0
 40
0.0
 40
1.0
 40
1.0
 40
1.0
 40
1.0
 10
395.2535265058165
 20
51.87268619792845
 30
0.0
 10
397.5911796730632
 20
51.87268619792845
 30
0.0
 10
399.4862219911849
 20
53.76772851605024
 30
0.0
 10
399.4862219911849
 20
56.10538168329683
 30
0.0
  0
SPLINE
  5
D7
330
70
100
AcDbEntity
  8
0
 62
    18
420
        0
370
    25
100
AcDbSpline
210
0.0
220
0.0
230
1.0
 70
     8
 71
     3
 72
     8
 73
     4
 74
     0
 42
0.0000000001
 43
0.0000000001
 40
0.0
 40
0.0
 40
0.0
 40
0.0
 40
1.0
 40
1.0
 40
1.0
 40
1.0
 10
399.4862219911849
 20
74.09433749611231
 30
0.0
 10
399.4862219911849
 20
76.4319906633589
 30
0.0
 10
397.5911796730632
 20
78.3270329814807
 30
0.0
 10
395.2535265058165
 20
78.3270329814807
 30
0.0
  0
LINE
  5
D8
330
70
100
AcDbEntity
  8
0
 62
    18
420
        0
370
    25
100
AcDbLine
 10
399.4862219911849
 20
56.10538168329683
 30
0.0
 11
399.4862219911849
 21
74.09433749611231
 31
0.0
  0
CIRCLE
  5
D9
330
70
100
AcDbEntity
  8
0
 62
    18
420
        0
370
    25
100
AcDbCircle
 10
393.5075396181024
 20
75.02023963353643
 30
0.0
 40
0.7936304035066925
  0
CIRCLE
  5
DA
330
70
100
AcDbEntity
  8
0
 62
    18
420
        0
370
    25
100
AcDbCircle
 10
397.8989611841719
 20
68.40665293764836
 30
0.0
 40
0.7936304035066124
  0
CIRCLE
  5
DB
330
70
100
AcDbEntity
  8
0
 62
    18
420
        0
370
    25
100
AcDbCircle
 10
397.8989611841719
 20
61.79306624176046
 30
0.0
 40
0.7936304035066124
  0
CIRCLE
  5
DC
330
70
100
AcDbEntity
  8
0
 62
    18
420
        0
370
    25
100
AcDbCircle
 10
393.5075396181024
 20
55.17947954587288
 30
0.0
 40
0.7936304035066124
  0
LINE
  5
DD
330
70
100
AcDbEntity
  8
0
 62
    18
420
        0
370
    25
100
AcDbLine
 10
395.2535265058165
 20
78.3270329814807
 30
0.0
 11
391.4308733955936
 21
78.3270329814807
 31
0.0
  0
LINE
  5
DE
330
70
100
AcDbEntity
  8
0
 62
    18
420
        0
370
    25
100
AcDbLine
 10
395.2535265058165
 20
51.87268619792845
 30
0.0
 11
391.4308733955936
 21
51.87268619792845
 31
0.0
  0
LINE
  5
DF
330
70
100
AcDbEntity
  8
0
 62
    18
420
        0
370
    25
100
AcDbLine
 10
387.0791333496993
 20
78.59157644931602
 30
0.0
 11
391.1001940607992
 21
78.59157644931602
 31
0.0
  0
LINE
  5
E0
330
70
100
AcDbEntity
  8
0
 62
    18
420
        0
370
    25
100
AcDbLine
 10
389.0896637052489
 20
79.78202205457577
 30
0.0
 11
387.1452692166581
 21
79.78202205457577
 31
0.0
  0
LINE
  5
E1
330
70
100
AcDbEntity
  8
0
 62
    18
420
        0
370
    25
100
AcDbLine
 10
391.0340581938397
 20
79.78202205457577
 30
0.0
 11
389.0896637052489
 21
79.78202205457577
 31
0.0
  0
LINE
  5
E2
330
70
100
AcDbEntity
  8
0
 62
    18
420
        0
370
    25
100
AcDbLine
 10
389.7634710299748
 20
49.22725151957329
 30
0.0
 11
390.3330180040761
 21
49.22725151957329
 31
0.0
  0
LINE
  5
E3
330
70
100
AcDbEntity
  8
0
 62
    18
420
        0
370
    25
100
AcDbLine
 10
389.7634710299748
 20
51.87268619792845
 30
0.0
 11
389.7634710299748
 21
49.22725151957329
 31
0.0
  0
LINE
  5
E4
330
70
100
AcDbEntity
  8
0
 62
    18
420
        0
370
    25
100
AcDbLine
 10
388.4158563805231
 20
51.87268619792845
 30
0.0
 11
388.4158563805231
 21
49.22725151957329
 31
0.0
  0
LINE
  5
E5
330
70
100
AcDbEntity
  8
0
 62
    18
420
        0
370
    25
100
AcDbLine
 10
387.8463094064223
 20
49.22725151957329
 30
0.0
 11
388.4158563805231
 21
49.22725151957329
 31
0.0
  0
LINE
  5
E6
330
70
100
AcDbEntity
  8
0
 62
    18
420
        0
370
    25
100
AcDbLine
 10
388.5193592799418
 20
49.12143413243967
 30
0.0
 11
388.5193592799418
 21
49.20079717279005
 31
0.0
  0
LINE
  5
E7
330
70
100
AcDbEntity
  8
0
 62
    18
420
        0
370
    25
100
AcDbLine
 10
388.4660196627651
 20
49.20079717279005
 30
0.0
 11
388.5193592799418
 21
49.20079717279005
 31
0.0
  0
LINE
  5
E8
330
70
100
AcDbEntity
  8
0
 62
    18
420
        0
370
    25
100
AcDbLine
 10
388.4158563805231
 20
49.22725151957329
 30
0.0
 11
388.4660196627651
 21
49.20079717279005
 31
0.0
  0
LINE
  5
E9
330
70
100
AcDbEntity
  8
0
 62
    18
420
        0
370
    25
100
AcDbLine
 10
389.7133077477334
 20
49.20079717279005
 30
0.0
 11
389.7634710299748
 21
49.22725151957329
 31
0.0
  0
LINE
  5
EA
330
70
100
AcDbEntity
  8
0
 62
    18
420
        0
370
    25
100
AcDbLine
 10
389.7133077477334
 20
49.20079717279005
 30
0.0
 11
389.6599681305561
 21
49.20079717279005
 31
0.0
  0
LINE
  5
EB
330
70
100
AcDbEntity
  8
0
 62
    18
420
        0
370
    25
100
AcDbLine
 10
389.6599681305561
 20
49.20079717279005
 30
0.0
 11
389.6599681305561
 21
49.12143413243967
 31
0.0
  0
LINE
  5
EC
330
70
100
AcDbEntity
  8
0
 62
    18
420
        0
370
    25
100
AcDbLine
 10
388.4660196627651
 20
49.20079717279005
 30
0.0
 11
387.8727637532056
 21
49.20079717279005
 31
0.0
  0
LINE
  5
ED
330
70
100
AcDbEntity
  8
0
 62
    18
420
        0
370
    25
100
AcDbLine
 10
390.3065636572922
 20
49.20079717279005
 30
0.0
 11
389.7133077477334
 21
49.20079717279005
 31
0.0
  0
LINE
  5
EE
330
70
100
AcDbEntity
  8
0
 62
    18
420
        0
370
    25
100
AcDbLine
 10
387.0526790029154
 20
78.56512210253246
 30
0.0
 11
391.1266484075824
 21
78.56512210253246
 31
0.0
  0
LINE
  5
EF
330
70
100
AcDbEntity
  8
0
 62
    18
420
        0
370
    25
100
AcDbLine
 10
387.0526790029154
 20
78.35348732826393
 30
0.0
 11
391.1266484075824
 21
78.35348732826393
 31
0.0
  0
INSERT
  5
F1
330
70
100
AcDbEntity
  8
0
100
AcDbBlockReference
  2
Block_2
 10
0.0
 20
0.0
 30
0.0
  0
INSERT
  5
F9
330
70
100
AcDbEntity
  8
0
100
AcDbBlockReference
  2
Block_3
 10
0.0
 20
0.0
 30
0.0
  0
INSERT
  5
101
330
70
100
AcDbEntity
  8
0
100
AcDbBlockReference
  2
Block_4
 10
0.0
 20
0.0
 30
0.0
  0
INSERT
  5
109
330
70
100
AcDbEntity
  8
0
100
AcDbBlockReference
  2
Block_5
 10
0.0
 20
0.0
 30
0.0
  0
INSERT
  5
113
330
70
100
AcDbEntity
  8
0
100
AcDbBlockReference
  2
Block_6
 10
0.0
 20
0.0
 30
0.0
  0
INSERT
  5
11B
330
70
100
AcDbEntity
  8
0
100
AcDbBlockReference
  2
Block_7
 10
0.0
 20
0.0
 30
0.0
  0
INSERT
  5
125
330
70
100
AcDbEntity
  8
0
100
AcDbBlockReference
  2
Block_8
 10
0.0
 20
0.0
 30
0.0
  0
LINE
  5
12D
330
70
100
AcDbEntity
  8
0
 62
    18
420
        0
370
    25
100
AcDbLine
 10
399.88200107648
 20
105.1347990610774
 30
0.0
 11
399.88200107648
 21
105.0863842462609
 31
0.0
  0
LINE
  5
12E
330
70
100
AcDbEntity
  8
0
 62
    18
420
        0
370
    25
100
AcDbLine
 10
400.0464167787716
 20
104.4511307538967
 30
0.0
 11
400.069904736242
 21
104.4087950698042
 31
0.0
  0
LINE
  5
12F
330
70
100
AcDbEntity
  8
0
 62
    18
420
        0
370
    25
100
AcDbLine
 10
404.8646779039886
 20
104.9440506834075
 30
0.0
 11
405.0107125727207
 21
104.9818472369206
 31
0.0
  0
LINE
  5
130
330
70
100
AcDbEntity
  8
0
 62
    18
420
        0
370
    25
100
AcDbLine
 10
405.4938154772332
 20
105.8126064685086
 30
0.0
 11
405.4938154772332
 21
105.8610212833252
 31
0.0
  0
LINE
  5
131
330
70
100
AcDbEntity
  8
0
 62
    18
420
        0
370
    25
100
AcDbLine
 10
405.3293997749416
 20
106.4962747756894
 30
0.0
 11
405.3059118174711
 21
106.5386104597822
 31
0.0
  0
LINE
  5
132
330
70
100
AcDbEntity
  8
0
 62
    18
420
        0
370
    25
100
AcDbLine
 10
405.6706286542866
 20
107.14744685678
 30
0.0
 11
405.1991952211936
 21
107.0254309057976
 31
0.0
  0
LINE
  5
133
330
70
100
AcDbEntity
  8
0
 62
    18
420
        0
370
    25
100
AcDbLine
 10
405.3597314387381
 20
105.2634622321416
 30
0.0
 11
406.1081054848448
 21
105.4571556881343
 31
0.0
  0
LINE
  5
134
330
70
100
AcDbEntity
  8
0
 62
    18
420
        0
370
    25
100
AcDbLine
 10
408.6300014279879
 20
108.2471870606701
 30
0.0
 11
408.5025664687441
 21
108.3657786529618
 31
0.0
  0
LINE
  5
135
330
70
100
AcDbEntity
  8
0
 62
    18
420
        0
370
    25
100
AcDbLine
 10
405.5715624061358
 20
108.3657786529618
 30
0.0
 11
405.4441274468919
 21
108.2471870606701
 31
0.0
  0
LINE
  5
136
330
70
100
AcDbEntity
  8
0
 62
    18
420
        0
370
    25
100
AcDbLine
 10
405.3836677634683
 20
108.1325234158274
 30
0.0
 11
405.3836677634683
 21
107.0731759130367
 31
0.0
  0
LINE
  5
137
330
70
100
AcDbEntity
  8
0
 62
    18
420
        0
370
    25
100
AcDbLine
 10
405.3836677634683
 20
105.2696574088513
 30
0.0
 11
405.3836677634683
 21
105.0661710027268
 31
0.0
  0
LINE
  5
138
330
70
100
AcDbEntity
  8
0
 62
    18
420
        0
370
    25
100
AcDbLine
 10
408.6904611114122
 20
105.0661710027268
 30
0.0
 11
408.6904611114122
 21
108.1325234158274
 31
0.0
  0
LINE
  5
139
330
70
100
AcDbEntity
  8
0
 62
    18
420
        0
370
    25
100
AcDbLine
 10
405.4441274468919
 20
104.9515073578841
 30
0.0
 11
405.5715624061358
 21
104.8329157655924
 31
0.0
  0
LINE
  5
13A
330
70
100
AcDbEntity
  8
0
 62
    18
420
        0
370
    25
100
AcDbLine
 10
408.5025664687441
 20
104.8329157655924
 30
0.0
 11
408.6300014279879
 21
104.9515073578841
 31
0.0
  0
LINE
  5
13B
330
70
100
AcDbEntity
  8
0
 62
    18
420
        0
370
    25
100
AcDbLine
 10
402.0513806897108
 20
114.1150518791094
 30
0.0
 11
401.583729489648
 21
113.9940148420683
 31
0.0
  0
SPLINE
  5
13C
330
70
100
AcDbEntity
  8
0
 62
    18
420
        0
370
    25
100
AcDbSpline
210
0.0
220
0.0
230
1.0
 70
     8
 71
     3
 72
    65
 73
    61
 74
     0
 42
0.0000000001
 43
0.0000000001
 40
0.0
 40
0.0
 40
0.0
 40
0.0
 40
1.0
 40
1.0
 40
1.0
 40
2.0
 40
2.0
 40
2.0
 40
3.0
 40
3.0
 40
3.0
 40
4.0
 40
4.0
 40
4.0
 40
5.0
 40
5.0
 40
5.0
 40
6.0
 40
6.0
 40
6.0
 40
7.0
 40
7.0
 40
7.0
 40
8.0
 40
8.0
 40
8.0
 40
9.0
 40
9.0
 40
9.0
 40
10.0
 40
10.0
 40
10.0
 40
11.0
 40
11.0
 40
11.0
 40
12.0
 40
12.0
 40
12.0
 40
13.0
 40
13.0
 40
13.0
 40
14.0
 40
14.0
 40
14.0
 40
15.0
 40
15.0
 40
15.0
 40
16.0
 40
16.0
 40
16.0
 40
17.0
 40
17.0
 40
17.0
 40
18.0
 40
18.0
 40
18.0
 40
19.0
 40
19.0
 40
19.0
 40
20.0
 40
20.0
 40
20.0
 40
20.0
 10
400.2007542322477
 20
106.3956308411136
 30
0.0
 10
400.1794005316472
 20
106.3894865304814
 30
0.0
 10
400.1580468310467
 20
106.3833422198489
 30
0.0
 10
400.1372481659982
 20
106.375566250144
 30
0.0
 10
400.0893850416096
 20
106.3576717264157
 30
0.0
 10
400.0444612717425
 20
106.3311362706751
 30
0.0
 10
400.0014832067162
 20
106.3013420320752
 30
0.0
 10
399.9583685974171
 20
106.2714531351278
 30
0.0
 10
399.9172120758745
 20
106.2382847156726
 30
0.0
 10
399.8787934240443
 20
106.2009463675338
 30
0.0
 10
399.8399931090586
 20
106.1632370883214
 30
0.0
 10
399.8039853317318
 20
106.1212746180859
 30
0.0
 10
399.7709216184923
 20
106.0759122183745
 30
0.0
 10
399.7374512459203
 20
106.0299918945409
 30
0.0
 10
399.7069978024322
 20
105.9805874936581
 30
0.0
 10
399.6797828872136
 20
105.9281083027353
 30
0.0
 10
399.6522798597547
 20
105.8750735378864
 30
0.0
 10
399.6280842932489
 20
105.8188985355122
 30
0.0
 10
399.6073335797822
 20
105.7601520071755
 30
0.0
 10
399.5864391441891
 20
105.7009985927841
 30
0.0
 10
399.5690374458836
 20
105.6392379076279
 30
0.0
 10
399.5552356278868
 20
105.5754469485348
 30
0.0
 10
399.5413864883872
 20
105.5114372730316
 30
0.0
 10
399.5311619569217
 20
105.4453833775558
 30
0.0
 10
399.5246196363086
 20
105.3779157402217
 30
0.0
 10
399.518071441012
 20
105.310387520263
 30
0.0
 10
399.5152120724252
 20
105.2414430183643
 30
0.0
 10
399.5160447346902
 20
105.1717459799789
 30
0.0
 10
399.516877237573
 20
105.1020622824925
 30
0.0
 10
399.52140035804
 20
105.0316263365818
 30
0.0
 10
399.529555832415
 20
104.9611249221259
 30
0.0
 10
399.5377091838238
 20
104.8906418600162
 30
0.0
 10
399.5494929982988
 20
104.8200933634411
 30
0.0
 10
399.5647852513512
 20
104.7501729924644
 30
0.0
 10
399.5800786922795
 20
104.6802471901887
 30
0.0
 10
399.5988811168655
 20
104.6109496110981
 30
0.0
 10
399.621007681129
 20
104.5429644060829
 30
0.0
 10
399.6431472182048
 20
104.4749393413202
 30
0.0
 10
399.6686147939881
 20
104.4082281899742
 30
0.0
 10
399.6971671309728
 20
104.3434909502506
 30
0.0
 10
399.7257480760481
 20
104.2786888468765
 30
0.0
 10
399.7574199669899
 20
104.2158646126383
 30
0.0
 10
399.7918882268555
 20
104.1556366029624
 30
0.0
 10
399.8264094123971
 20
104.0953161137658
 30
0.0
 10
399.8637355610504
 20
104.0375998282076
 30
0.0
 10
399.9035310031511
 20
103.9830664957972
 30
0.0
 10
399.9433999787742
 20
103.9284323973751
 30
0.0
 10
399.985747381735
 20
103.8769930258109
 30
0.0
 10
400.0302034029926
 20
103.8292347968634
 30
0.0
 10
400.0747333591093
 20
103.7813971411513
 30
0.0
 10
400.1213789530462
 20
103.7372528824625
 30
0.0
 10
400.1697546094526
 20
103.6973730758127
 30
0.0
 10
400.2181330061816
 20
103.6574910101035
 30
0.0
 10
400.2682416613897
 20
103.6218738795807
 30
0.0
 10
400.3196349357549
 20
103.5905256620496
 30
0.0
 10
400.3708695290649
 20
103.5592742347752
 30
0.0
 10
400.4233808210383
 20
103.5322653999332
 30
0.0
 10
400.4768029292079
 20
103.5113867722941
 30
0.0
 10
400.5165657623734
 20
103.4958465134767
 30
0.0
 10
400.5568331910027
 20
103.4837024115998
 30
0.0
 10
400.5971006196319
 20
103.4715583097231
 30
0.0
  0
SPLINE
  5
13D
330
70
100
AcDbEntity
  8
0
 62
    18
420
        0
370
    25
100
AcDbSpline
210
0.0
220
0.0
230
1.0
 70
     8
 71
     3
 72
    17
 73
    13
 74
     0
 42
0.0000000001
 43
0.0000000001
 40
0.0
 40
0.0
 40
0.0
 40
0.0
 40
1.0
 40
1.0
 40
1.0
 40
2.0
 40
2.0
 40
2.0
 40
3.0
 40
3.0
 40
3.0
 40
4.0
 40
4.0
 40
4.0
 40
4.0
 10
400.5971006196319
 20
103.4715583097231
 30
0.0
 10
400.6267759085613
 20
103.4647486504253
 30
0.0
 10
400.6564511974899
 20
103.4579389911272
 30
0.0
 10
400.6861246110417
 20
103.4532306695819
 30
0.0
 10
400.7390782251889
 20
103.4448284464282
 30
0.0
 10
400.792025866991
 20
103.4431181635711
 30
0.0
 10
400.8450340944679
 20
103.4441025496015
 30
0.0
 10
400.8974974102502
 20
103.4450768163831
 30
0.0
 10
400.9500200724985
 20
103.4486906357244
 30
0.0
 10
400.9989597832738
 20
103.4654320565696
 30
0.0
 10
401.0005391976444
 20
103.4659723466582
 30
0.0
 10
401.0021148802836
 20
103.4665263094616
 30
0.0
 10
401.0036905629234
 20
103.467080272265
 30
0.0
  0
LINE
  5
13E
330
70
100
AcDbEntity
  8
0
 62
    18
420
        0
370
    25
100
AcDbLine
 10
402.0261802219111
 20
106.8736821231714
 30
0.0
 11
400.2491056616727
 21
106.4137413824145
 31
0.0
  0
LINE
  5
13F
330
70
100
AcDbEntity
  8
0
 62
    18
420
        0
370
    25
100
AcDbLine
 10
401.0113803314885
 20
103.4685382212087
 30
0.0
 11
402.788454891727
 21
103.9284789619656
 31
0.0
  0
LINE
  5
140
330
70
100
AcDbEntity
  8
0
 62
    18
420
        0
370
    25
100
AcDbLine
 10
403.23090562399
 20
103.7968744512607
 30
0.0
 11
403.6985568240528
 21
103.9179114883018
 31
0.0
  0
LINE
  5
141
330
70
100
AcDbEntity
  8
0
 62
    18
420
        0
370
    25
100
AcDbLine
 10
409.1137306599486
 20
110.9177935243942
 30
0.0
 11
409.1137306599493
 21
136.470730300234
 31
0.0
  0
LINE
  5
142
330
70
100
AcDbEntity
  8
0
 62
    18
420
        0
370
    25
100
AcDbLine
 10
400.1215153503012
 20
137.2206810462092
 30
0.0
 11
399.5603339102261
 21
137.0754366017595
 31
0.0
  0
LINE
  5
143
330
70
100
AcDbEntity
  8
0
 62
    18
420
        0
370
    25
100
AcDbLine
 10
405.0000797351067
 20
136.7007067312165
 30
0.0
 11
405.0000797351067
 21
136.4962832370098
 31
0.0
  0
LINE
  5
144
330
70
100
AcDbEntity
  8
0
 62
    18
420
        0
370
    25
100
AcDbLine
 10
409.0740491397737
 20
136.4962832370098
 30
0.0
 11
409.0740491397737
 21
136.7007067312165
 31
0.0
  0
LINE
  5
145
330
70
100
AcDbEntity
  8
0
 62
    18
420
        0
370
    25
100
AcDbLine
 10
408.9814589260312
 20
136.7262596679923
 30
0.0
 11
408.9814589260312
 21
137.8761418229051
 31
0.0
  0
LINE
  5
146
330
70
100
AcDbEntity
  8
0
 62
    18
420
        0
370
    25
100
AcDbLine
 10
405.0926699488494
 20
137.8761418229051
 30
0.0
 11
405.0926699488494
 21
136.7262596679923
 31
0.0
  0
LINE
  5
147
330
70
100
AcDbEntity
  8
0
 62
    18
420
        0
370
    25
100
AcDbLine
 10
405.7937101386131
 20
110.4872962435285
 30
0.0
 11
405.7937101386131
 21
108.3624998468099
 31
0.0
  0
LINE
  5
148
330
70
100
AcDbEntity
  8
0
 62
    18
420
        0
370
    25
100
AcDbLine
 10
408.2804187362675
 20
108.3624998468099
 30
0.0
 11
408.2804187362675
 21
110.4872962435285
 31
0.0
  0
LINE
  5
149
330
70
100
AcDbEntity
  8
0
 62
    18
420
        0
370
    25
100
AcDbLine
 10
408.2094660624835
 20
108.2525544674303
 30
0.0
 11
408.2349530543324
 21
108.2762727858884
 31
0.0
  0
LINE
  5
14A
330
70
100
AcDbEntity
  8
0
 62
    18
420
        0
370
    25
100
AcDbLine
 10
408.2275100426997
 20
108.2602880997067
 30
0.0
 11
408.2275100426997
 21
108.2693462830973
 31
0.0
  0
LINE
  5
14B
330
70
100
AcDbEntity
  8
0
 62
    18
420
        0
370
    25
100
AcDbLine
 10
405.8466188321802
 20
108.2701971500248
 30
0.0
 11
405.8466188321802
 21
108.2602880997067
 31
0.0
  0
LWPOLYLINE
  5
14C
330
70
100
AcDbEntity
  8
0
 62
    18
420
        0
370
    25
100
AcDbPolyline
 90
       20
 70
     0
 43
0.0
 10
408.0094650240052
 20
106.421409080379
 10
408.0618569346249
 20
106.5127141656933
 10
408.1298898365876
 20
106.5806166829136
 10
408.2061913093266
 20
106.6177583406832
 10
408.282492904331
 20
106.6201142640704
 10
408.3505261598415
 20
106.5874291522202
 10
408.4029186169782
 20
106.5232449441636
 10
408.4339927400576
 20
106.4345169947636
 10
408.4403811656793
 20
106.3308603540942
 10
408.4213916088014
 20
106.2235078275707
 10
408.3790818825638
 20
106.1240927271869
 10
408.3180369023078
 20
106.0433882216548
 10
408.2448718388556
 20
105.9901398964073
 10
408.1675152621037
 20
105.9701180337184
 10
408.0943499574542
 20
105.9854923130818
 10
408.0333045209437
 20
106.0345966927713
 10
407.990994172835
 20
106.1121099513152
 10
407.9720038958584
 20
106.2096323244076
 10
407.9783915811884
 20
106.316595749709
 10
408.0094650240052
 20
106.421409080379
  0
LINE
  5
14D
330
70
100
AcDbEntity
  8
0
 62
    18
420
        0
370
    25
100
AcDbLine
 10
408.0880531397575
 20
106.0191628854481
 30
0.0
 11
407.9905215341592
 21
106.2571876538413
 31
0.0
  0
LINE
  5
14E
330
70
100
AcDbEntity
  8
0
 62
    18
420
        0
370
    25
100
AcDbLine
 10
408.303724043196
 20
106.0587298482806
 30
0.0
 11
408.0880531397575
 21
106.0191628854481
 31
0.0
  0
LINE
  5
14F
330
70
100
AcDbEntity
  8
0
 62
    18
420
        0
370
    25
100
AcDbLine
 10
408.4218633410348
 20
106.3363215795063
 30
0.0
 11
408.303724043196
 21
106.0587298482806
 31
0.0
  0
LINE
  5
150
330
70
100
AcDbEntity
  8
0
 62
    18
420
        0
370
    25
100
AcDbLine
 10
408.3243317354366
 20
106.5743463478999
 30
0.0
 11
408.4218633410348
 21
106.3363215795063
 31
0.0
  0
LINE
  5
151
330
70
100
AcDbEntity
  8
0
 62
    18
420
        0
370
    25
100
AcDbLine
 10
408.1086608319981
 20
106.534779385067
 30
0.0
 11
408.3243317354366
 21
106.5743463478999
 31
0.0
  0
LINE
  5
152
330
70
100
AcDbEntity
  8
0
 62
    18
420
        0
370
    25
100
AcDbLine
 10
407.9905215341592
 20
106.2571876538413
 30
0.0
 11
408.1086608319981
 21
106.534779385067
 31
0.0
  0
LINE
  5
153
330
70
100
AcDbEntity
  8
0
 62
    18
420
        0
370
    25
100
AcDbLine
 10
408.0443312565139
 20
106.1258656416362
 30
0.0
 11
408.303724043196
 21
106.0587298482806
 31
0.0
  0
LINE
  5
154
330
70
100
AcDbEntity
  8
0
 62
    18
420
        0
370
    25
100
AcDbLine
 10
408.1412726209976
 20
106.4089438017312
 30
0.0
 11
408.4218633410348
 21
106.3363215795063
 31
0.0
  0
LINE
  5
155
330
70
100
AcDbEntity
  8
0
 62
    18
420
        0
370
    25
100
AcDbLine
 10
408.1412726209976
 20
106.4089438017312
 30
0.0
 11
408.0990063269743
 21
106.5120942090687
 31
0.0
  0
LINE
  5
156
330
70
100
AcDbEntity
  8
0
 62
    18
420
        0
370
    25
100
AcDbLine
 10
408.0327878281826
 20
106.1540372465041
 30
0.0
 11
408.1412726209976
 21
106.4089438017312
 31
0.0
  0
LWPOLYLINE
  5
157
330
70
100
AcDbEntity
  8
0
 62
    18
420
        0
370
    25
100
AcDbPolyline
 90
       34
 70
     0
 43
0.0
 10
401.1914244366558
 20
104.7474805425454
 10
401.179592943679
 20
104.5812853803935
 10
401.1445260857329
 20
104.4272213758479
 10
401.0874912704276
 20
104.2908568034423
 10
401.0105498845927
 20
104.177120234118
 10
400.9164827903797
 20
104.0901224038284
 10
400.8086898176638
 20
104.0330076408302
 10
400.691066885331
 20
104.0078402214699
 10
400.5678651926189
 20
104.0155297618561
 10
400.4435375697008
 20
104.0557983419639
 10
400.3225775408014
 20
104.12719055039
 10
400.2093569165237
 20
104.2271260867108
 10
400.1079677852229
 20
104.3519930202647
 10
400.0220746142709
 20
104.4972783347351
 10
399.9547818066574
 20
104.6577310403195
 10
399.9085214997802
 20
104.8275519581834
 10
399.8849656616599
 20
105.0006033178906
 10
399.8849656616599
 20
105.1706305924207
 10
399.9085214997802
 20
105.3314885530699
 10
399.9547818066574
 20
105.4773633740297
 10
400.0220746142709
 20
105.602982759197
 10
400.1079677852229
 20
105.7038064966937
 10
400.2093569165237
 20
105.7761905539532
 10
400.3225775408014
 20
105.8175187825513
 10
400.4435375697008
 20
105.8262974726268
 10
400.5678651926189
 20
105.8022093394476
 10
400.691066885331
 20
105.746124990908
 10
400.8086898176644
 20
105.6600714614907
 10
400.9164827903797
 20
105.5471589499585
 10
401.0105498845927
 20
105.4114684086694
 10
401.0874912704276
 20
105.2579040473239
 10
401.1445260857329
 20
105.0920160820485
 10
401.179592943679
 20
104.9198001361258
 10
401.1914244366558
 20
104.7474805425454
  0
LWPOLYLINE
  5
158
330
70
100
AcDbEntity
  8
0
 62
    18
420
        0
370
    25
100
AcDbPolyline
 90
       15
 70
     0
 43
0.0
 10
401.1790349784431
 20
105.4938885196816
 10
401.0967642030862
 20
105.6195188462584
 10
400.9848113944647
 20
105.7494428256723
 10
400.861462465795
 20
105.8533872808258
 10
400.7306819531375
 20
105.928011351404
 10
400.5966732497741
 20
105.9709165583776
 10
400.4637435056945
 20
105.980723893092
 10
400.3361651922483
 20
105.95711813974
 10
400.2180387814009
 20
105.9008580066573
 10
400.1131609531928
 20
105.8137517408121
 10
400.0249025673158
 20
105.6985990092597
 10
399.9561003209109
 20
105.5591009155407
 10
399.9089655747883
 20
105.3997410431662
 10
399.8850132784712
 20
105.2256413495562
 10
399.88200107648
 20
105.1347990610774
  0
LWPOLYLINE
  5
159
330
70
100
AcDbEntity
  8
0
 62
    18
420
        0
370
    25
100
AcDbPolyline
 90
       15
 70
     0
 43
0.0
 10
400.069904736242
 20
104.4087950698042
 10
400.1131609531928
 20
104.3361892242294
 10
400.2180387814016
 20
104.1947941996854
 10
400.3361651922483
 20
104.0773873368891
 10
400.4637435056945
 20
103.9877421890133
 10
400.5966732497741
 20
103.9287400248709
 10
400.7306819531375
 20
103.9022772225648
 10
400.861462465795
 20
103.9092043183346
 10
400.9848113944647
 20
103.9492986696225
 10
401.0967642030862
 20
104.0212716109888
 10
401.193722636276
 20
104.1228098728783
 10
401.272570370213
 20
104.2506499320076
 10
401.330773173853
 20
104.4006829036893
 10
401.3664603611972
 20
104.5680866047662
 10
401.3782872159174
 20
104.724036991151
  0
SPLINE
  5
15A
330
70
100
AcDbEntity
  8
0
 62
    18
420
        0
370
    25
100
AcDbSpline
210
0.0
220
0.0
230
1.0
 70
     8
 71
     3
 72
     8
 73
     4
 74
     0
 42
0.0000000001
 43
0.0000000001
 40
0.0
 40
0.0
 40
0.0
 40
0.0
 40
1.0
 40
1.0
 40
1.0
 40
1.0
 10
405.0107125727207
 20
104.9818472369206
 30
0.0
 10
405.3458922920403
 20
105.1120872016703
 30
0.0
 10
405.5463944623283
 20
105.456877157111
 30
0.0
 10
405.4938154772332
 20
105.8126064685086
 30
0.0
  0
SPLINE
  5
15B
330
70
100
AcDbEntity
  8
0
 62
    18
420
        0
370
    25
100
AcDbSpline
210
0.0
220
0.0
230
1.0
 70
     8
 71
     3
 72
     8
 73
     4
 74
     0
 42
0.0000000001
 43
0.0000000001
 40
0.0
 40
0.0
 40
0.0
 40
0.0
 40
1.0
 40
1.0
 40
1.0
 40
1.0
 10
405.4938154772332
 20
105.8126064685086
 30
0.0
 10
405.4950397700435
 20
106.1331524776694
 30
0.0
 10
405.3915935371296
 20
106.4453366991956
 30
0.0
 10
405.1991952211936
 20
106.7017233815852
 30
0.0
  0
SPLINE
  5
15C
330
70
100
AcDbEntity
  8
0
 62
    18
420
        0
370
    25
100
AcDbSpline
210
0.0
220
0.0
230
1.0
 70
     8
 71
     3
 72
     8
 73
     4
 74
     0
 42
0.0000000001
 43
0.0000000001
 40
0.0
 40
0.0
 40
0.0
 40
0.0
 40
1.0
 40
1.0
 40
1.0
 40
1.0
 10
405.4938154772332
 20
105.8610212833252
 30
0.0
 10
405.4930170395925
 20
106.0831926601482
 30
0.0
 10
405.4364857870608
 20
106.3016126473994
 30
0.0
 10
405.3293997749416
 20
106.4962747756894
 30
0.0
  0
SPLINE
  5
15D
330
70
100
AcDbEntity
  8
0
 62
    18
420
        0
370
    25
100
AcDbSpline
210
0.0
220
0.0
230
1.0
 70
     8
 71
     3
 72
    56
 73
    52
 74
     0
 42
0.0000000001
 43
0.0000000001
 40
0.0
 40
0.0
 40
0.0
 40
0.0
 40
1.0
 40
1.0
 40
1.0
 40
2.0
 40
2.0
 40
2.0
 40
3.0
 40
3.0
 40
3.0
 40
4.0
 40
4.0
 40
4.0
 40
5.0
 40
5.0
 40
5.0
 40
6.0
 40
6.0
 40
6.0
 40
7.0
 40
7.0
 40
7.0
 40
8.0
 40
8.0
 40
8.0
 40
9.0
 40
9.0
 40
9.0
 40
10.0
 40
10.0
 40
10.0
 40
11.0
 40
11.0
 40
11.0
 40
12.0
 40
12.0
 40
12.0
 40
13.0
 40
13.0
 40
13.0
 40
14.0
 40
14.0
 40
14.0
 40
15.0
 40
15.0
 40
15.0
 40
16.0
 40
16.0
 40
16.0
 40
17.0
 40
17.0
 40
17.0
 40
17.0
 10
405.6711520941428
 20
107.1449914441222
 30
0.0
 10
405.6972687945522
 20
107.150567749965
 30
0.0
 10
405.7233854949622
 20
107.1561440558078
 30
0.0
 10
405.7525035002998
 20
107.1567311410458
 30
0.0
 10
405.787507987093
 20
107.1574369111431
 30
0.0
 10
405.826849922155
 20
107.150932322147
 30
0.0
 10
405.8680242495958
 20
107.1399952256315
 30
0.0
 10
405.9089548603646
 20
107.1291228673381
 30
0.0
 10
405.951696235333
 20
107.1138703195046
 30
0.0
 10
405.9954852856912
 20
107.0938490611576
 30
0.0
 10
406.0401401109146
 20
107.0734319526587
 30
0.0
 10
406.0858844492888
 20
107.0480557004555
 30
0.0
 10
406.1313633875857
 20
107.0188210753785
 30
0.0
 10
406.1763488736101
 20
106.9899036497073
 30
0.0
 10
406.2210746875617
 20
106.9572111246087
 30
0.0
 10
406.2642563209638
 20
106.9210227603123
 30
0.0
 10
406.3080179953905
 20
106.8843482926831
 30
0.0
 10
406.3501937259657
 20
106.8440834387618
 30
0.0
 10
406.3898438547498
 20
106.8009871765318
 30
0.0
 10
406.4295865625028
 20
106.7577902889653
 30
0.0
 10
406.4667918606549
 20
106.7117487555601
 30
0.0
 10
406.5000303175824
 20
106.6630668685654
 30
0.0
 10
406.532636581817
 20
106.6153109070222
 30
0.0
 10
406.561425467775
 20
106.5650140753348
 30
0.0
 10
406.5854633773416
 20
106.5128079261941
 30
0.0
 10
406.6098854812422
 20
106.4597673739363
 30
0.0
 10
406.6294035268093
 20
106.4047559838135
 30
0.0
 10
406.6423878007287
 20
106.3486272920623
 30
0.0
 10
406.6550560575662
 20
106.2938646855843
 30
0.0
 10
406.6615047161398
 20
106.23803850241
 30
0.0
 10
406.6614884538576
 20
106.1825975986518
 30
0.0
 10
406.6614722281559
 20
106.1272814038707
 30
0.0
 10
406.6550201333212
 20
106.0723487571571
 30
0.0
 10
406.6423979933979
 20
106.0193100286706
 30
0.0
 10
406.6294077720232
 20
105.964724607446
 30
0.0
 10
406.6098824021329
 20
105.9121451742993
 30
0.0
 10
406.5854386502643
 20
105.8626117123858
 30
0.0
 10
406.5614601074592
 20
105.8140209623593
 30
0.0
 10
406.5327486127007
 20
105.768361346101
 30
0.0
 10
406.5002084749734
 20
105.7263654031172
 30
0.0
 10
406.4669129736071
 20
105.6833945961494
 30
0.0
 10
406.4296090153873
 20
105.6442595284684
 30
0.0
 10
406.3897680714505
 20
105.6100833623585
 30
0.0
 10
406.3502775037802
 20
105.5762077543257
 30
0.0
 10
406.3082943765965
 20
105.5472042104946
 30
0.0
 10
406.2646791769507
 20
105.521410809335
 30
0.0
 10
406.2213148288125
 20
105.4957657581454
 30
0.0
 10
406.1763371278552
 20
105.4732940297394
 30
0.0
 10
406.1313886253035
 20
105.4638755554022
 30
0.0
 10
406.1234462794206
 20
105.4622113224104
 30
0.0
 10
406.1155048451827
 20
105.4609546441396
 30
0.0
 10
406.1075634109455
 20
105.4596979658688
 30
0.0
  0
LWPOLYLINE
  5
15E
330
70
100
AcDbEntity
  8
0
 62
    18
420
        0
370
    25
100
AcDbPolyline
 90
       21
 70
     0
 43
0.0
 10
408.1126621975847
 20
107.9819029145119
 10
407.9403391316236
 20
107.9435210881502
 10
407.747838401611
 20
107.912215313385
 10
407.5394601557579
 20
107.8886849094935
 10
407.3198592197416
 20
107.8734555068155
 10
407.0939411155921
 20
107.866867305041
 10
406.8667524804396
 20
107.8690674737111
 10
406.643368332974
 20
107.8800068646931
 10
406.428778705919
 20
107.8994411100696
 10
406.2277771769442
 20
107.9269360809129
 10
406.0448537880618
 20
107.9618775850086
 10
405.8840947455079
 20
108.0034850868941
 10
405.7490911406464
 20
108.0508291437313
 10
405.6428587309244
 20
108.1028521675248
 10
405.5677705728296
 20
108.1583920498883
 10
405.525504011735
 20
108.2162081216261
 10
405.5170032127728
 20
108.2750088672346
 10
405.5424580697436
 20
108.3334807752218
 10
405.6012999632066
 20
108.3903176797853
 10
405.6922144624945
 20
108.444249938397
 10
405.7937101386131
 20
108.4870896754852
  0
LWPOLYLINE
  5
15F
330
70
100
AcDbEntity
  8
0
 62
    18
420
        0
370
    25
100
AcDbPolyline
 90
       11
 70
     0
 43
0.0
 10
408.2804187362675
 20
108.4870896754852
 10
408.3250377342336
 20
108.4697470556821
 10
408.4312701439563
 20
108.4177240318886
 10
408.5063583020509
 20
108.3621841495252
 10
408.5486248631449
 20
108.3043680777873
 10
408.5571256621078
 20
108.2455673321788
 10
408.5316708051363
 20
108.1870954241916
 10
408.4728289116739
 20
108.1302585196281
 10
408.3819144123861
 20
108.0763262610161
 10
408.2609581869556
 20
108.0265034058927
 10
408.1126621975847
 20
107.9819029145119
  0
LWPOLYLINE
  5
160
330
70
100
AcDbEntity
  8
0
 62
    18
420
        0
370
    25
100
AcDbPolyline
 90
        9
 70
     0
 43
0.0
 10
408.206192437597
 20
107.8299308232242
 10
408.3606766625616
 20
107.8760741953935
 10
408.4882159596058
 20
107.9274381341524
 10
408.5862139964336
 20
107.9829770178288
 10
408.6526758156188
 20
108.0415602349124
 10
408.686248446183
 20
108.1019952000435
 10
408.686248446183
 20
108.1630516316117
 10
408.6526758156188
 20
108.2234865967424
 10
408.6300014279879
 20
108.2471870606701
  0
LWPOLYLINE
  5
161
330
70
100
AcDbEntity
  8
0
 62
    18
420
        0
370
    25
100
AcDbPolyline
 90
       20
 70
     0
 43
0.0
 10
405.4441274468919
 20
108.2471870606701
 10
405.4214530592611
 20
108.2234865967424
 10
405.3878804286976
 20
108.1630516316117
 10
405.3878804286976
 20
108.1019952000435
 10
405.4214530592611
 20
108.0415602349124
 10
405.4879148784469
 20
107.9829770178288
 10
405.5859129152747
 20
107.9274381341524
 10
405.7134522123183
 20
107.8760741953935
 10
405.8679364372835
 20
107.8299308232242
 10
406.0462207368449
 20
107.7899473636354
 10
406.244675756793
 20
107.7569377645616
 10
406.4592615252187
 20
107.7315740062476
 10
406.6856096946917
 20
107.7143724216705
 10
406.919112469215
 20
107.7056831854864
 10
407.1550164056655
 20
107.7056831854864
 10
407.3885191801888
 20
107.7143724216705
 10
407.6148673496619
 20
107.7315740062476
 10
407.8294531180875
 20
107.7569377645616
 10
408.0279081380356
 20
107.7899473636354
 10
408.206192437597
 20
107.8299308232242
  0
SPLINE
  5
162
330
70
100
AcDbEntity
  8
0
 62
    18
420
        0
370
    25
100
AcDbSpline
210
0.0
220
0.0
230
1.0
 70
     8
 71
     3
 72
    41
 73
    37
 74
     0
 42
0.0000000001
 43
0.0000000001
 40
0.0
 40
0.0
 40
0.0
 40
0.0
 40
1.0
 40
1.0
 40
1.0
 40
2.0
 40
2.0
 40
2.0
 40
3.0
 40
3.0
 40
3.0
 40
4.0
 40
4.0
 40
4.0
 40
5.0
 40
5.0
 40
5.0
 40
6.0
 40
6.0
 40
6.0
 40
7.0
 40
7.0
 40
7.0
 40
8.0
 40
8.0
 40
8.0
 40
9.0
 40
9.0
 40
9.0
 40
10.0
 40
10.0
 40
10.0
 40
11.0
 40
11.0
 40
11.0
 40
12.0
 40
12.0
 40
12.0
 40
12.0
 10
408.206192437597
 20
105.8825415115376
 30
0.0
 10
408.1860328594647
 20
105.8790103676943
 30
0.0
 10
408.1658732813323
 20
105.8754792238513
 30
0.0
 10
408.1455319100032
 20
105.8755367113736
 30
0.0
 10
408.1250522145927
 20
105.8755945898189
 30
0.0
 10
408.1043882451429
 20
105.8792900719337
 30
0.0
 10
408.0841066891712
 20
105.8856242380731
 30
0.0
 10
408.0438003819993
 20
105.8982123672314
 30
0.0
 10
408.005004421598
 20
105.9212220116208
 30
0.0
 10
407.9718506247929
 20
105.9535643442553
 30
0.0
 10
407.9387501804045
 20
105.9858546303135
 30
0.0
 10
407.9112737550331
 20
106.027447591714
 30
0.0
 10
407.8922688732856
 20
106.0743499062474
 30
0.0
 10
407.8826684533352
 20
106.0980428669388
 30
0.0
 10
407.8752298192341
 20
106.1230906792348
 30
0.0
 10
407.8702674414142
 20
106.1491241033268
 30
0.0
 10
407.8653627868567
 20
106.1748547019992
 30
0.0
 10
407.862877115129
 20
106.2015481162048
 30
0.0
 10
407.8628736922935
 20
106.2286099653498
 30
0.0
 10
407.8628702723334
 20
106.2556490743939
 30
0.0
 10
407.8653449313454
 20
106.2830559994449
 30
0.0
 10
407.8702342917596
 20
106.3102458965018
 30
0.0
 10
407.8751904651552
 20
106.3378073427816
 30
0.0
 10
407.8826277845151
 20
106.3651457891777
 30
0.0
 10
407.8922282681777
 20
106.3918734647101
 30
0.0
 10
407.9112244129087
 20
106.444758591187
 30
0.0
 10
407.9386895983645
 20
106.4952524784448
 30
0.0
 10
407.971840829037
 20
106.5392868636126
 30
0.0
 10
408.0050105465653
 20
106.5833458046502
 30
0.0
 10
408.0438726527491
 20
106.6209380372786
 30
0.0
 10
408.0841616937686
 20
106.6505405710235
 30
0.0
 10
408.1044620089011
 20
106.6654563086176
 30
0.0
 10
408.1251245969276
 20
106.6783436064688
 30
0.0
 10
408.1456130563293
 20
106.6881015177968
 30
0.0
 10
408.1659202238906
 20
106.6977730863858
 30
0.0
 10
408.1860563307435
 20
106.7043704040981
 30
0.0
 10
408.206192437597
 20
106.7109677218103
 30
0.0
  0
SPLINE
  5
163
330
70
100
AcDbEntity
  8
0
 62
    18
420
        0
370
    25
100
AcDbSpline
210
0.0
220
0.0
230
1.0
 70
     8
 71
     3
 72
    41
 73
    37
 74
     0
 42
0.0000000001
 43
0.0000000001
 40
0.0
 40
0.0
 40
0.0
 40
0.0
 40
1.0
 40
1.0
 40
1.0
 40
2.0
 40
2.0
 40
2.0
 40
3.0
 40
3.0
 40
3.0
 40
4.0
 40
4.0
 40
4.0
 40
5.0
 40
5.0
 40
5.0
 40
6.0
 40
6.0
 40
6.0
 40
7.0
 40
7.0
 40
7.0
 40
8.0
 40
8.0
 40
8.0
 40
9.0
 40
9.0
 40
9.0
 40
10.0
 40
10.0
 40
10.0
 40
11.0
 40
11.0
 40
11.0
 40
12.0
 40
12.0
 40
12.0
 40
12.0
 10
408.206192437597
 20
106.7109677218103
 30
0.0
 10
408.2257550253451
 20
106.7146533781344
 30
0.0
 10
408.245317613093
 20
106.7183390344585
 30
0.0
 10
408.263857176158
 20
106.7187478892306
 30
0.0
 10
408.2825228107648
 20
106.7191595242706
 30
0.0
 10
408.3001514599688
 20
106.7162496408437
 30
0.0
 10
408.3166827729574
 20
106.7108861090117
 30
0.0
 10
408.3495360796868
 20
106.7002269583114
 30
0.0
 10
408.3780554434445
 20
106.6798770928523
 30
0.0
 10
408.4008442383747
 20
106.6502174201054
 30
0.0
 10
408.4235963606635
 20
106.6206054768913
 30
0.0
 10
408.4406363430058
 20
106.5817136657101
 30
0.0
 10
408.4521071698029
 20
106.5367613080844
 30
0.0
 10
408.4579017206924
 20
106.5140533787896
 30
0.0
 10
408.4622751230652
 20
106.4897989068421
 30
0.0
 10
408.4651727371393
 20
106.4642998829309
 30
0.0
 10
408.4680366456511
 20
106.4390974682016
 30
0.0
 10
408.4694588994431
 20
106.4126792868106
 30
0.0
 10
408.4694609035418
 20
106.3856178048618
 30
0.0
 10
408.4694629059566
 20
106.3585790627053
 30
0.0
 10
408.4680470445503
 20
106.3308981006692
 30
0.0
 10
408.465192077168
 20
106.3031816639502
 30
0.0
 10
408.4622980967321
 20
106.2750864828577
 30
0.0
 10
408.4579254109041
 20
106.2469548509374
 30
0.0
 10
408.4521317093746
 20
106.2192419076887
 30
0.0
 10
408.4406679126907
 20
106.1644072660828
 30
0.0
 10
408.4236406736803
 20
106.1112118394932
 30
0.0
 10
408.400850952704
 20
106.0644956982799
 30
0.0
 10
408.3780485229905
 20
106.0177535057097
 30
0.0
 10
408.3494771825989
 20
105.9774978269056
 30
0.0
 10
408.3166377637062
 20
105.9459671890754
 30
0.0
 10
408.3000910667525
 20
105.9300799436084
 30
0.0
 10
408.2824607820205
 20
105.916407827914
 30
0.0
 10
408.2637838515934
 20
105.9061810583868
 30
0.0
 10
408.2452721837175
 20
105.8960447802836
 30
0.0
 10
408.2257323106577
 20
105.8892931459105
 30
0.0
 10
408.206192437597
 20
105.8825415115376
 30
0.0
  0
LWPOLYLINE
  5
164
330
70
100
AcDbEntity
  8
0
 62
    18
420
        0
370
    25
100
AcDbPolyline
 90
       18
 70
     0
 43
0.0
 10
408.206192437597
 20
104.7635784101234
 10
408.0279081380356
 20
104.7235949505346
 10
407.8294531180875
 20
104.6905853514607
 10
407.6148673496619
 20
104.6652215931471
 10
407.3885191801888
 20
104.6480200085696
 10
407.1550164056655
 20
104.6393307723855
 10
406.919112469215
 20
104.6393307723855
 10
406.6856096946911
 20
104.6480200085696
 10
406.4592615252187
 20
104.6652215931471
 10
406.244675756793
 20
104.6905853514607
 10
406.0462207368443
 20
104.7235949505346
 10
405.8679364372835
 20
104.7635784101234
 10
405.7134522123183
 20
104.8097217822926
 10
405.5859129152747
 20
104.8610857210515
 10
405.4879148784469
 20
104.9166246047282
 10
405.4214530592611
 20
104.9752078218118
 10
405.387880428697
 20
105.0356427869425
 10
405.3836677634683
 20
105.0661710027268
  0
LWPOLYLINE
  5
165
330
70
100
AcDbEntity
  8
0
 62
    18
420
        0
370
    25
100
AcDbPolyline
 90
        7
 70
     0
 43
0.0
 10
408.6904611114122
 20
105.0661710027268
 10
408.686248446183
 20
105.0356427869425
 10
408.6526758156188
 20
104.9752078218118
 10
408.5862139964336
 20
104.9166246047282
 10
408.4882159596058
 20
104.8610857210515
 10
408.3606766625616
 20
104.8097217822926
 10
408.206192437597
 20
104.7635784101234
  0
SPLINE
  5
166
330
70
100
AcDbEntity
  8
0
 62
    18
420
        0
370
    25
100
AcDbSpline
210
0.0
220
0.0
230
1.0
 70
     8
 71
     3
 72
     8
 73
     4
 74
     0
 42
0.0000000001
 43
0.0000000001
 40
0.0
 40
0.0
 40
0.0
 40
0.0
 40
1.0
 40
1.0
 40
1.0
 40
1.0
 10
405.9693451243735
 20
108.1541571557018
 30
0.0
 10
406.1739580664511
 20
108.0512736387936
 30
0.0
 10
406.3981720241381
 20
107.9932427963667
 30
0.0
 10
406.6270059583088
 20
107.9839420066612
 30
0.0
  0
SPLINE
  5
167
330
70
100
AcDbEntity
  8
0
 62
    18
420
        0
370
    25
100
AcDbSpline
210
0.0
220
0.0
230
1.0
 70
     8
 71
     3
 72
     8
 73
     4
 74
     0
 42
0.0000000001
 43
0.0000000001
 40
0.0
 40
0.0
 40
0.0
 40
0.0
 40
1.0
 40
1.0
 40
1.0
 40
1.0
 10
408.1126621975847
 20
104.6600211336526
 30
0.0
 10
408.254545511526
 20
104.6857762131042
 30
0.0
 10
408.3882235353233
 20
104.7450528469668
 30
0.0
 10
408.5025664687441
 20
104.8329157655924
 30
0.0
  0
LWPOLYLINE
  5
168
330
70
100
AcDbEntity
  8
0
 62
    18
420
        0
370
    25
100
AcDbPolyline
 90
       15
 70
     0
 43
0.0
 10
405.5715624061358
 20
104.8329157655924
 10
405.6428587309237
 20
104.7809703866656
 10
405.7490911406464
 20
104.7289473628721
 10
405.8840947455079
 20
104.6816033060349
 10
406.0448537880618
 20
104.6399958041494
 10
406.2277771769442
 20
104.6050543000537
 10
406.428778705919
 20
104.5775593292104
 10
406.643368332974
 20
104.5581250838339
 10
406.8667524804396
 20
104.5471856928519
 10
407.0939411155921
 20
104.5449855241818
 10
407.3198592197416
 20
104.5515737259563
 10
407.5394601557579
 20
104.5668031286343
 10
407.747838401611
 20
104.5903335325258
 10
407.9403391316236
 20
104.621639307291
 10
408.1126621975847
 20
104.6600211336526
  0
LWPOLYLINE
  5
169
330
70
100
AcDbEntity
  8
0
 62
    18
420
        0
370
    25
100
AcDbPolyline
 90
       21
 70
     0
 43
0.0
 10
405.1991952211936
 20
110.3313978677986
 10
405.1872703668409
 20
110.6556888533461
 10
405.1516181689268
 20
110.9828249333793
 10
405.0926044672459
 20
111.309449249031
 10
405.0108348222356
 20
111.632210192829
 10
404.9071483011065
 20
111.9477958007248
 10
404.7826088678751
 20
112.2529677373258
 10
404.638494465656
 20
112.544594525599
 10
404.4762839032331
 20
112.8196836800623
 10
404.2976416804827
 20
113.0754124137363
 10
404.104400908352
 20
113.3091566037569
 10
403.8985444986602
 20
113.5185177184282
 10
403.682184816738
 20
113.7013474294026
 10
403.4575420057044
 20
113.8557696564373
 10
403.2269212047896
 20
113.980199818517
 10
402.9926888954919
 20
114.0733610937968
 10
402.7572486182716
 20
114.1342975215257
 10
402.5230163089739
 20
114.162383811495
 10
402.2923955080591
 20
114.1573317603626
 10
402.0677526970255
 20
114.1191932090096
 10
402.0513806897108
 20
114.1150518791094
  0
LINE
  5
16A
330
70
100
AcDbEntity
  8
0
 62
    18
420
        0
370
    25
100
AcDbLine
 10
405.1991952211936
 20
110.3313978677986
 30
0.0
 11
404.7315440211309
 21
110.2103608307571
 31
0.0
  0
LWPOLYLINE
  5
16B
330
70
100
AcDbEntity
  8
0
 62
    18
420
        0
370
    25
100
AcDbPolyline
 90
       32
 70
     0
 43
0.0
 10
404.7315440211309
 20
110.2103608307571
 10
404.7196191667782
 20
110.5346518163049
 10
404.6839669688641
 20
110.8617878963379
 10
404.6249532671832
 20
111.1884122119895
 10
404.5431836221728
 20
111.5111731557876
 10
404.4394971010438
 20
111.8267587636833
 10
404.3149576678123
 20
112.1319307002846
 10
404.1708432655934
 20
112.4235574885578
 10
404.0086327031703
 20
112.6986466430212
 10
403.8299904804199
 20
112.9543753766952
 10
403.6367497082893
 20
113.1881195667158
 10
403.4308932985974
 20
113.3974806813868
 10
403.2145336166753
 20
113.5803103923611
 10
402.9898908056416
 20
113.7347326193962
 10
402.7592700047269
 20
113.8591627814756
 10
402.5250376954292
 20
113.9523240567557
 10
402.2895974182089
 20
114.0132604844846
 10
402.0553651089112
 20
114.0413467744539
 10
401.8247443079964
 20
114.0362947233212
 10
401.6001014969628
 20
113.9981561719682
 10
401.3837418150406
 20
113.9273224735413
 10
401.1778854053487
 20
113.8245204776396
 10
400.9846446332181
 20
113.6908050718543
 10
400.8060024104677
 20
113.5275483571949
 10
400.6437918480448
 20
113.3364255684751
 10
400.4996774458251
 20
113.1193978841378
 10
400.3751380125943
 20
112.8786923019096
 10
400.2714514914652
 20
112.6167787867911
 10
400.1896818464548
 20
112.3363449258729
 10
400.130668144774
 20
112.0402683500552
 10
400.0950159468599
 20
111.7315872056624
 10
400.0830910925072
 20
111.4134689789477
  0
LINE
  5
16C
330
70
100
AcDbEntity
  8
0
 62
    18
420
        0
370
    25
100
AcDbLine
 10
400.0830910925072
 20
111.4134689789477
 30
0.0
 11
400.0830910925072
 21
107.5805284625715
 31
0.0
  0
LINE
  5
16D
330
70
100
AcDbEntity
  8
0
 62
    18
420
        0
370
    25
100
AcDbLine
 10
404.7315440211309
 20
106.3774203143813
 30
0.0
 11
404.7315440211309
 21
110.2103608307571
 31
0.0
  0
SPLINE
  5
16E
330
70
100
AcDbEntity
  8
0
 62
    18
420
        0
370
    25
100
AcDbSpline
210
0.0
220
0.0
230
1.0
 70
     8
 71
     3
 72
     8
 73
     4
 74
     0
 42
0.0000000001
 43
0.0000000001
 40
0.0
 40
0.0
 40
0.0
 40
0.0
 40
1.0
 40
1.0
 40
1.0
 40
1.0
 10
400.0830910925072
 20
107.5805284625715
 30
0.0
 10
400.0842462210269
 20
107.1855072248523
 30
0.0
 10
400.1354756954377
 20
106.7922259788137
 30
0.0
 10
400.2355542806688
 20
106.4100906764021
 30
0.0
  0
LWPOLYLINE
  5
16F
330
70
100
AcDbEntity
  8
0
 62
    18
420
        0
370
    25
100
AcDbPolyline
 90
       17
 70
     0
 43
0.0
 10
402.3587908313866
 20
103.8172737201532
 10
402.5250376954292
 20
103.7776288088444
 10
402.7592700047269
 20
103.7495425188751
 10
402.9898908056416
 20
103.7545945700078
 10
403.2145336166753
 20
103.7927331213608
 10
403.4308932985974
 20
103.8635668197877
 10
403.6367497082893
 20
103.9663688156894
 10
403.8299904804199
 20
104.1000842214747
 10
404.0086327031703
 20
104.263340936134
 10
404.1708432655934
 20
104.4544637248538
 10
404.3149576678123
 20
104.6714914091912
 10
404.4394971010438
 20
104.9121969914191
 10
404.5431836221728
 20
105.1741105065379
 10
404.6249532671832
 20
105.4545443674561
 10
404.6839669688641
 20
105.7506209432734
 10
404.7196191667782
 20
106.0593020876666
 10
404.7315440211309
 20
106.3774203143813
  0
LWPOLYLINE
  5
170
330
70
100
AcDbEntity
  8
0
 62
    18
420
        0
370
    25
100
AcDbPolyline
 90
       23
 70
     0
 43
0.0
 10
402.788454891727
 20
103.9284789619656
 10
402.874001934777
 20
103.9565057076867
 10
403.0132233495168
 20
104.0302730220744
 10
403.1389098300765
 20
104.1346619112785
 10
403.2482537481716
 20
104.2673405000119
 10
403.3388125413575
 20
104.425344967847
 10
403.4085632758377
 20
104.6051457560667
 10
403.4559478354637
 20
104.8027264121744
 10
403.4799077274747
 20
105.0136733108045
 10
403.4799077274741
 20
105.2332742468214
 10
403.4559478354637
 20
105.4566236981933
 10
403.4085632758377
 20
105.678732407251
 10
403.3388125413575
 20
105.8946388324576
 10
403.2482537481723
 20
106.0995199810485
 10
403.1389098300765
 20
106.2887991467204
 10
403.0132233495168
 20
106.4582481456862
 10
402.874001934777
 20
106.6040817673153
 10
402.7243555622062
 20
106.7230423294832
 10
402.5676270844851
 20
106.8124724498077
 10
402.407317556819
 20
106.8703744071793
 10
402.247008029153
 20
106.8954547675502
 10
402.0902795514318
 20
106.8871532771145
 10
402.0261802219111
 20
106.8736821231714
  0
LWPOLYLINE
  5
171
330
70
100
AcDbEntity
  8
0
 62
    18
420
        0
370
    25
100
AcDbPolyline
 90
       29
 70
     0
 43
0.0
 10
401.1773949006539
 20
110.823607070961
 10
401.289782057002
 20
110.8118171022944
 10
401.3965336520426
 20
110.8352142675295
 10
401.4922967150454
 20
110.8926253351035
 10
401.5722692861586
 20
110.9811714743605
 10
401.632441206731
 20
111.0964126121414
 10
401.6697952054088
 20
111.2325700765933
 10
401.682458196722
 20
111.3828163639039
 10
401.6697952054088
 20
111.5396174978544
 10
401.632441206731
 20
111.6951108148432
 10
401.5722692861586
 20
111.8414992306733
 10
401.4922967150454
 20
111.9714422189103
 10
401.3965336520426
 20
112.0784238955291
 10
401.289782057002
 20
112.1570797525474
 10
401.1773949006539
 20
112.2034656568563
 10
401.0650077443059
 20
112.2152556255229
 10
400.9582561492654
 20
112.1918584602878
 10
400.8624930862626
 20
112.1344473927138
 10
400.7825205151493
 20
112.0459012534569
 10
400.7223485945769
 20
111.9306601156759
 10
400.6849945958991
 20
111.794502651224
 10
400.6723316045859
 20
111.6442563639131
 10
400.6849945958991
 20
111.4874552299629
 10
400.7223485945769
 20
111.3319619129741
 10
400.7825205151493
 20
111.1855734971441
 10
400.8624930862626
 20
111.055630508907
 10
400.9582561492654
 20
110.9486488322882
 10
401.0650077443059
 20
110.8699929752699
 10
401.1773949006539
 20
110.823607070961
  0
LWPOLYLINE
  5
172
330
70
100
AcDbEntity
  8
0
 62
    18
420
        0
370
    25
100
AcDbPolyline
 90
       29
 70
     0
 43
0.0
 10
403.4221206609551
 20
107.9428649833373
 10
403.5345078173032
 20
107.9310750146704
 10
403.6412594123444
 20
107.9544721799055
 10
403.7370224753465
 20
108.0118832474795
 10
403.8169950464597
 20
108.1004293867364
 10
403.8771669670322
 20
108.2156705245177
 10
403.91452096571
 20
108.3518279889693
 10
403.9271839570232
 20
108.5020742762802
 10
403.91452096571
 20
108.6588754102304
 10
403.8771669670322
 20
108.8143687272192
 10
403.8169950464604
 20
108.9607571430496
 10
403.7370224753465
 20
109.0907001312863
 10
403.6412594123444
 20
109.1976818079051
 10
403.5345078173032
 20
109.2763376649235
 10
403.4221206609551
 20
109.3227235692326
 10
403.309733504607
 20
109.3345135378992
 10
403.2029819095659
 20
109.3111163726641
 10
403.1072188465637
 20
109.2537053050901
 10
403.0272462754505
 20
109.1651591658332
 10
402.9670743548781
 20
109.0499180280519
 10
402.9297203562002
 20
108.9137605636004
 10
402.9170573648877
 20
108.7635142762894
 10
402.9297203562002
 20
108.6067131423392
 10
402.9670743548781
 20
108.4512198253504
 10
403.0272462754505
 20
108.30483140952
 10
403.1072188465637
 20
108.1748884212833
 10
403.2029819095665
 20
108.0679067446646
 10
403.309733504607
 20
107.9892508876462
 10
403.4221206609551
 20
107.9428649833373
  0
LINE
  5
173
330
70
100
AcDbEntity
  8
0
 62
    18
420
        0
370
    25
100
AcDbLine
 10
405.1991952211936
 20
106.4984573514224
 30
0.0
 11
404.7315440211309
 21
106.3774203143813
 31
0.0
  0
LINE
  5
174
330
70
100
AcDbEntity
  8
0
 62
    18
420
        0
370
    25
100
AcDbLine
 10
405.1991952211936
 20
106.4984573514224
 30
0.0
 11
405.1991952211936
 21
110.3313978677986
 31
0.0
  0
LINE
  5
175
330
70
100
AcDbEntity
  8
0
 62
    18
420
        0
370
    25
100
AcDbLine
 10
400.2041435745518
 20
106.4005064141429
 30
0.0
 11
400.2491056616727
 21
106.4137413824145
 31
0.0
  0
LWPOLYLINE
  5
176
330
70
100
AcDbEntity
  8
0
 62
    18
420
        0
370
    25
100
AcDbPolyline
 90
       41
 70
     0
 43
0.0
 10
400.5367127565682
 20
103.5754032136715
 10
400.6903419637131
 20
103.5521574993333
 10
400.8401883099124
 20
103.5625170723397
 10
400.9825620808106
 20
103.6062268456223
 10
401.1139575616569
 20
103.6822105394978
 10
401.2311393596361
 20
103.7885971832482
 10
401.3312220699781
 20
103.9227671846274
 10
401.4117413241986
 20
104.0814168329159
 10
401.4707144710309
 20
104.2606396472459
 10
401.5066893958791
 20
104.4560225671214
 10
401.5187802766995
 20
104.6627546166166
 10
401.5066893958791
 20
104.8757453665685
 10
401.4707144710309
 20
105.0897502778377
 10
401.4117413241986
 20
105.2994998392672
 10
401.3312220699781
 20
105.4998293205354
 10
401.2311393596361
 20
105.6858059449584
 10
401.1139575616569
 20
105.8528503508213
 10
400.9825620808106
 20
105.996849350464
 10
400.8401883099124
 20
106.1142572106094
 10
400.6903419637131
 20
106.2021829600866
 10
400.5367127565682
 20
106.2584615751348
 10
400.3830835494226
 20
106.2817072894731
 10
400.2332372032233
 20
106.2713477164666
 10
400.0908634323251
 20
106.2276379431843
 10
399.9594679514789
 20
106.1516542493085
 10
399.8422861534998
 20
106.0452676055581
 10
399.7422034431577
 20
105.9110976041792
 10
399.6616841889372
 20
105.7524479558904
 10
399.6027110421049
 20
105.5732251415608
 10
399.5667361172567
 20
105.3778422216852
 10
399.5546452364363
 20
105.17111017219
 10
399.5667361172567
 20
104.9581194222378
 10
399.6027110421049
 20
104.7441145109686
 10
399.6616841889372
 20
104.5343649495394
 10
399.7422034431577
 20
104.3340354682712
 10
399.8422861534998
 20
104.1480588438483
 10
399.9594679514789
 20
103.981014437985
 10
400.0908634323251
 20
103.8370154383424
 10
400.233237203224
 20
103.7196075781969
 10
400.3830835494226
 20
103.6316818287197
 10
400.5367127565682
 20
103.5754032136715
  0
LWPOLYLINE
  5
177
330
70
100
AcDbEntity
  8
0
 62
    18
420
        0
370
    25
100
AcDbPolyline
 90
       38
 70
     0
 43
0.0
 10
400.5367127565682
 20
103.7670502394903
 10
400.3944525709848
 20
103.820409892885
 10
400.2562849519282
 20
103.9053145022148
 10
400.1261847302378
 20
104.0193215164546
 10
400.0078946524181
 20
104.1591511613773
 10
399.9048177086386
 20
104.3207807926851
 10
399.8199192348991
 20
104.4995606201641
 10
399.7556416057157
 20
104.6903474736807
 10
399.7138339714492
 20
104.8876527628247
 10
399.6956990616193
 20
105.0858003736596
 10
399.7017585845632
 20
105.2790899601888
 10
399.7318382188384
 20
105.4619609329289
 10
399.7850726281325
 20
105.6291524269463
 10
399.8599303554146
 20
105.7758546473634
 10
399.9542578801629
 20
105.8978472383986
 10
400.0653415712319
 20
105.9916206953192
 10
400.1899857530807
 20
106.0544773265025
 10
400.3246046395345
 20
106.0846088611121
 10
400.4653254903316
 20
106.0811484697578
 10
400.6081000228041
 20
106.0441957015985
 10
400.7488208736013
 20
105.9748136204941
 10
400.8834397600557
 20
105.8749982225948
 10
401.0080839419038
 20
105.7476210151644
 10
401.1191676329735
 20
105.5963464085454
 10
401.2134951577218
 20
105.425526297746
 10
401.2883528850032
 20
105.2400748663416
 10
401.3415872942974
 20
105.0453272143637
 10
401.3716669285726
 20
104.8468858771833
 10
401.3777264515165
 20
104.6504596507702
 10
401.3595915416865
 20
104.4616993600255
 10
401.3177839074207
 20
104.2860352948391
 10
401.2535062782367
 20
104.1285209905361
 10
401.1686078044979
 20
103.993687846865
 10
401.0655308607177
 20
103.8854147678792
 10
400.9472407828985
 20
103.8068165729297
 10
400.8171405612075
 20
103.7601543889807
 10
400.6789729421509
 20
103.7467706021076
 10
400.5367127565682
 20
103.7670502394903
  0
LWPOLYLINE
  5
178
330
70
100
AcDbEntity
  8
0
 62
    18
420
        0
370
    25
100
AcDbPolyline
 90
       15
 70
     0
 43
0.0
 10
403.6469751086146
 20
107.9568136586304
 10
403.6280380573156
 20
107.9552824220787
 10
403.5156509009675
 20
107.9670723907456
 10
403.4032637446195
 20
108.0134582950545
 10
403.296512149579
 20
108.0921141520729
 10
403.2007490865761
 20
108.1990958286916
 10
403.1207765154629
 20
108.3290388169283
 10
403.0606045948904
 20
108.4754272327587
 10
403.0232505962127
 20
108.6309205497475
 10
403.0105876049001
 20
108.7877216836977
 10
403.0232505962127
 20
108.9379679710086
 10
403.0606045948904
 20
109.0741254354602
 10
403.1207765154629
 20
109.1893665732414
 10
403.2007490865761
 20
109.2779127124984
 10
403.290796454481
 20
109.332982301644
  0
SPLINE
  5
179
330
70
100
AcDbEntity
  8
0
 62
    18
420
        0
370
    25
100
AcDbSpline
210
0.0
220
0.0
230
1.0
 70
     8
 71
     3
 72
     8
 73
     4
 74
     0
 42
0.0000000001
 43
0.0000000001
 40
0.0
 40
0.0
 40
0.0
 40
0.0
 40
1.0
 40
1.0
 40
1.0
 40
1.0
 10
403.0142965720401
 20
108.8702209647605
 30
0.0
 10
403.0293573888221
 20
108.6474499706022
 30
0.0
 10
403.0857841583974
 20
108.429433674496
 30
0.0
 10
403.1806895230541
 20
108.2273279699754
 30
0.0
  0
LWPOLYLINE
  5
17A
330
70
100
AcDbEntity
  8
0
 62
    18
420
        0
370
    25
100
AcDbPolyline
 90
       10
 70
     0
 43
0.0
 10
400.6302429965806
 20
103.9190223307779
 10
400.7638467503916
 20
103.9008689830544
 10
400.8931563696264
 20
103.9161507953832
 10
401.0140157367247
 20
103.9643765977426
 10
401.1225403321861
 20
104.0439963731644
 10
401.2152420862175
 20
104.1524510765546
 10
401.2891414881691
 20
104.28625488451
 10
401.3418633504571
 20
104.4411072325487
 10
401.3717131490488
 20
104.6120310387916
 10
401.378287215911
 20
104.724036990791
  0
LWPOLYLINE
  5
17B
330
70
100
AcDbEntity
  8
0
 62
    18
420
        0
370
    25
100
AcDbPolyline
 90
       15
 70
     0
 43
0.0
 10
401.1709331187934
 20
105.5077393593208
 10
401.0700485623628
 20
105.6542201495587
 10
400.9548929986384
 20
105.7780102190267
 10
400.8293029167251
 20
105.8749025847062
 10
400.6973148851907
 20
105.9417830462409
 10
400.5631711079699
 20
105.9765020105676
 10
400.4311830764361
 20
105.9779435816061
 10
400.3055929945229
 20
105.9460614260769
 10
400.1904374307984
 20
105.8818802626916
 10
400.0894175798315
 20
105.7874629268498
 10
400.0057803027515
 20
105.6658440694122
 10
399.9422137704613
 20
105.5209326205254
 10
399.9007610636104
 20
105.3573861533898
 10
399.8827545063049
 20
105.180461186026
 10
399.88200107648
 20
105.1347990610774
  0
SPLINE
  5
17C
330
70
100
AcDbEntity
  8
0
 62
    18
420
        0
370
    25
100
AcDbSpline
210
0.0
220
0.0
230
1.0
 70
     8
 71
     3
 72
     8
 73
     4
 74
     0
 42
0.0000000001
 43
0.0000000001
 40
0.0
 40
0.0
 40
0.0
 40
0.0
 40
1.0
 40
1.0
 40
1.0
 40
1.0
 10
400.069904736242
 20
104.4087950698042
 30
0.0
 10
400.1832544183946
 20
104.1768532108919
 30
0.0
 10
400.3852211322969
 20
104.0003209309072
 30
0.0
 10
400.6302429965806
 20
103.9190223307779
 30
0.0
  0
LWPOLYLINE
  5
17D
330
70
100
AcDbEntity
  8
0
 62
    18
420
        0
370
    25
100
AcDbPolyline
 90
       13
 70
     0
 43
0.0
 10
403.6985568240528
 20
103.9179114883018
 10
403.8985444986602
 20
103.9846038568288
 10
404.104400908352
 20
104.0874058527305
 10
404.2976416804827
 20
104.2211212585158
 10
404.4762839032331
 20
104.3843779731755
 10
404.638494465656
 20
104.575500761895
 10
404.7826088678751
 20
104.7925284462323
 10
404.9071483011065
 20
105.0332340284605
 10
405.0108348222356
 20
105.295147543579
 10
405.0926044672459
 20
105.5755814044972
 10
405.1516181689268
 20
105.8716579803149
 10
405.1872703668409
 20
106.1803391247077
 10
405.1991952211936
 20
106.4984573514224
  0
LWPOLYLINE
  5
17E
330
70
100
AcDbEntity
  8
0
 62
    18
420
        0
370
    25
100
AcDbPolyline
 90
       15
 70
     0
 43
0.0
 10
401.4022493481351
 20
110.8375557462348
 10
401.3833122970145
 20
110.8360245097024
 10
401.2709251406664
 20
110.8478144783693
 10
401.1585379843183
 20
110.8942003826782
 10
401.0517863892777
 20
110.9728562396965
 10
400.956023326275
 20
111.0798379163153
 10
400.8760507551618
 20
111.2097809045524
 10
400.8158788345893
 20
111.3561693203824
 10
400.7785248359115
 20
111.5116626373712
 10
400.7658618445989
 20
111.6684637713214
 10
400.7785248359115
 20
111.8187100586323
 10
400.8158788345893
 20
111.9548675230842
 10
400.8760507551618
 20
112.0701086608651
 10
400.956023326275
 20
112.1586548001221
 10
401.0460706940239
 20
112.2137243892022
  0
SPLINE
  5
17F
330
70
100
AcDbEntity
  8
0
 62
    18
420
        0
370
    25
100
AcDbSpline
210
0.0
220
0.0
230
1.0
 70
     8
 71
     3
 72
     8
 73
     4
 74
     0
 42
0.0000000001
 43
0.0000000001
 40
0.0
 40
0.0
 40
0.0
 40
0.0
 40
1.0
 40
1.0
 40
1.0
 40
1.0
 10
400.7695708117428
 20
111.7509630523294
 30
0.0
 10
400.7846316285286
 20
111.5281920582092
 30
0.0
 10
400.8410583980943
 20
111.3101757621402
 30
0.0
 10
400.9359637627286
 20
111.1080700576507
 30
0.0
  0
SPLINE
  5
180
330
70
100
AcDbEntity
  8
0
 62
    18
420
        0
370
    25
100
AcDbSpline
210
0.0
220
0.0
230
1.0
 70
     8
 71
     3
 72
     8
 73
     4
 74
     0
 42
0.0000000001
 43
0.0000000001
 40
0.0
 40
0.0
 40
0.0
 40
0.0
 40
1.0
 40
1.0
 40
1.0
 40
1.0
 10
403.8850953490173
 20
136.5118828928282
 30
0.0
 10
404.0082871225145
 20
136.4843905178371
 30
0.0
 10
404.1360245355703
 20
136.4843905178371
 30
0.0
 10
404.2592163090676
 20
136.5118828928279
 30
0.0
  0
LINE
  5
181
330
70
100
AcDbEntity
  8
0
 62
    18
420
        0
370
    25
100
AcDbLine
 10
404.2592163090676
 20
136.5118828928279
 30
0.0
 11
405.0001112764858
 21
136.7036406208165
 31
0.0
  0
LWPOLYLINE
  5
182
330
70
100
AcDbEntity
  8
0
 62
    18
420
        0
370
    25
100
AcDbPolyline
 90
       27
 70
     0
 43
0.0
 10
409.0740491397737
 20
136.5752995757414
 10
409.0896034828202
 20
136.5524229011395
 10
409.1131833697863
 20
136.4830691530385
 10
409.101928222745
 20
136.41350837231
 10
409.0560268909118
 20
136.344907713747
 10
408.976249549072
 20
136.278418222329
 10
408.8639347748843
 20
136.2151555199307
 10
408.7209670889867
 20
136.1561810863901
 10
408.549745334781
 20
136.102484449025
 10
408.3531424284264
 20
136.0549665794321
 10
408.1344571544108
 20
136.0144247761555
 10
407.897358815508
 20
135.9815392868797
 10
407.6458256658399
 20
135.9568618946066
 10
407.3840781600651
 20
135.9408066593336
 10
407.1165081387111
 20
135.9336429705724
 10
406.8476051378284
 20
135.9354910272862
 10
406.5818810594258
 20
135.9463198210784
 10
406.3237944666245
 20
135.9659476564816
 10
406.0776757737845
 20
135.9940451996108
 10
405.8476545868258
 20
136.0301410040301
 10
405.6375904129017
 20
136.0736294211163
 10
405.4510079020354
 20
136.1237807621862
 10
405.2910377072977
 20
136.1797535418878
 10
405.1603639558285
 20
136.2406085974143
 10
405.0611792120843
 20
136.3053248466412
 10
404.9951476889707
 20
136.3728164207836
 10
404.9951476889707
 20
136.3728164207836
  0
LINE
  5
183
330
70
100
AcDbEntity
  8
0
 62
    18
420
        0
370
    25
100
AcDbLine
 10
404.9951476889707
 20
136.3728164207836
 30
0.0
 11
405.0541256784528
 21
136.3756445300865
 31
0.0
  0
LINE
  5
184
330
70
100
AcDbEntity
  8
0
 62
    18
420
        0
370
    25
100
AcDbLine
 10
405.0221429219472
 20
136.418897656564
 30
0.0
 11
404.5396501367402
 21
136.2940383759103
 31
0.0
  0
SPLINE
  5
185
330
70
100
AcDbEntity
  8
0
 62
    18
420
        0
370
    25
100
AcDbSpline
210
0.0
220
0.0
230
1.0
 70
     8
 71
     3
 72
     8
 73
     4
 74
     0
 42
0.0000000001
 43
0.0000000001
 40
0.0
 40
0.0
 40
0.0
 40
0.0
 40
1.0
 40
1.0
 40
1.0
 40
1.0
 10
403.6043833941127
 20
136.2940476040462
 30
0.0
 10
403.9123508403074
 20
136.2253201671229
 30
0.0
 10
404.2316813343596
 20
136.225317016337
 30
0.0
 10
404.5396501367402
 20
136.2940383759103
 30
0.0
  0
LINE
  5
186
330
70
100
AcDbEntity
  8
0
 62
    18
420
        0
370
    25
100
AcDbLine
 10
403.6043833941127
 20
136.2940476040462
 30
0.0
 11
400.6208899725794
 21
137.0662325224771
 31
0.0
  0
LINE
  5
187
330
70
100
AcDbEntity
  8
0
 62
    18
420
        0
370
    25
100
AcDbLine
 10
401.1820714126545
 20
137.2114769669269
 30
0.0
 11
400.6208899725794
 21
137.0662325224771
 31
0.0
  0
LINE
  5
188
330
70
100
AcDbEntity
  8
0
 62
    18
420
        0
370
    25
100
AcDbLine
 10
401.1820714126545
 20
137.2114769669269
 30
0.0
 11
403.8850953490173
 21
136.5118828928282
 31
0.0
  0
LWPOLYLINE
  5
189
330
70
100
AcDbEntity
  8
0
 62
    18
420
        0
370
    25
100
AcDbPolyline
 90
       22
 70
     0
 43
0.0
 10
409.1137306599486
 20
110.9177935243942
 10
409.101928222745
 20
110.8605715964699
 10
409.0560268909111
 20
110.7919709379069
 10
408.976249549072
 20
110.7254814464893
 10
408.8639347748843
 20
110.6622187440906
 10
408.7209670889867
 20
110.60324431055
 10
408.549745334781
 20
110.5495476731852
 10
408.3531424284258
 20
110.502029803592
 10
408.1344571544108
 20
110.4614880003154
 10
407.897358815508
 20
110.4286025110396
 10
407.6458256658392
 20
110.4039251187668
 10
407.3840781600651
 20
110.3878698834935
 10
407.1165081387111
 20
110.3807061947327
 10
406.8476051378284
 20
110.3825542514464
 10
406.5818810594258
 20
110.3933830452387
 10
406.3237944666245
 20
110.4130108806418
 10
406.0776757737845
 20
110.4411084237711
 10
405.8476545868258
 20
110.4772042281904
 10
405.6375904129017
 20
110.5206926452765
 10
405.4510079020354
 20
110.5708439863464
 10
405.2910377072971
 20
110.6268167660483
 10
405.185878923242
 20
110.6742209036946
  0
LINE
  5
18A
330
70
100
AcDbEntity
  8
0
 62
    18
420
        0
370
    25
100
AcDbLine
 10
404.9951476889707
 20
111.685071419676
 30
0.0
 11
404.9951476889707
 21
136.3728164207836
 31
0.0
  0
LINE
  5
18B
330
70
100
AcDbEntity
  8
0
 62
    18
420
        0
370
    25
100
AcDbLine
 10
401.6712917605085
 20
111.2414317589114
 30
0.0
 11
400.8125955698843
 21
111.4636786870018
 31
0.0
  0
LWPOLYLINE
  5
18C
330
70
100
AcDbEntity
  8
0
 62
    18
420
        0
370
    25
100
AcDbPolyline
 90
       17
 70
     0
 43
0.0
 10
397.6279222921777
 20
116.3764026678358
 10
397.6406897646571
 20
115.9958617938762
 10
397.6788832545212
 20
115.6119586304074
 10
397.7421769083814
 20
115.2279685038597
 10
397.8300307271002
 20
114.8471674826014
 10
397.9416951728716
 20
114.4728044266796
 10
398.0762175640165
 20
114.1080732696908
 10
398.2324502029254
 20
113.7560857692652
 10
398.4090601678089
 20
113.4198449586499
 10
398.6045406847173
 20
113.1022195258856
 10
398.8172239828052
 20
112.8059193391731
 10
399.0452955231635
 20
112.5334723272326
 10
399.2868094798244
 20
112.2872029119085
 10
399.5397053408668
 20
112.0692121770195
 10
399.8018254879712
 20
111.881359942655
 10
400.0709336044649
 20
111.7252488978433
 10
400.093695689619
 20
111.7136695477199
  0
LINE
  5
18D
330
70
100
AcDbEntity
  8
0
 62
    18
420
        0
370
    25
100
AcDbLine
 10
397.6279222921777
 20
116.3764026678358
 30
0.0
 11
397.6279222921777
 21
133.752399675407
 31
0.0
  0
LWPOLYLINE
  5
18E
330
70
100
AcDbEntity
  8
0
 62
    18
420
        0
370
    25
100
AcDbPolyline
 90
       18
 70
     0
 43
0.0
 10
400.6208899725794
 20
137.0662325224771
 10
400.3447337547818
 20
137.1202663193179
 10
400.0709336044649
 20
137.1389577353582
 10
399.8018254879712
 20
137.1221473020266
 10
399.5397053408668
 20
137.0699784400136
 10
399.2868094798244
 20
136.9828962356551
 10
399.0452955231635
 20
136.8616436436149
 10
398.8172239828052
 20
136.7072551482557
 10
398.604540684718
 20
136.5210479377836
 10
398.4090601678089
 20
136.3046106664642
 10
398.2324502029261
 20
136.0597899007822
 10
398.0762175640165
 20
135.7886743651892
 10
397.9416951728716
 20
135.4935771218428
 10
397.8300307271002
 20
135.1770158363738
 10
397.7421769083814
 20
134.8416912980544
 10
397.6788832545212
 20
134.4904643776128
 10
397.6406897646571
 20
134.1263316192956
 10
397.6279222921777
 20
133.752399675407
  0
LWPOLYLINE
  5
18F
330
70
100
AcDbEntity
  8
0
 62
    18
420
        0
370
    25
100
AcDbPolyline
 90
       40
 70
     0
 43
0.0
 10
401.8554891407451
 20
132.274930808916
 10
402.0055221967384
 20
132.252644587634
 10
402.1516694753901
 20
132.2640259497842
 10
402.2901458389513
 20
132.3087801240657
 10
402.4173648223432
 20
132.3857480008727
 10
402.5300315207219
 20
132.4929361526256
 10
402.6252279257795
 20
132.6275684624967
 10
402.7004885006306
 20
132.7861580243799
 10
402.7538640359177
 20
132.9645974519258
 10
402.7839721333147
 20
133.1582652576906
 10
402.7900330089139
 20
133.3621455472338
 10
402.7718896892202
 20
133.5709579281503
 10
402.7300120766846
 20
133.7792942694578
 10
402.6654847794742
 20
133.9817587693508
 10
402.5799790206914
 20
134.1731077036318
 10
402.4757093545752
 20
134.3483852354137
 10
402.3553763107071
 20
134.5030517686928
 10
402.2220964517159
 20
134.6331015214993
 10
402.0793216559409
 20
134.7351662735476
 10
401.9307497155955
 20
134.8066026013719
 10
401.780228565894
 20
134.8455603416051
 10
401.6316566255493
 20
134.8510305092393
 10
401.4888818297736
 20
134.8228714298057
 10
401.3556019707825
 20
134.76181240867
 10
401.235268926915
 20
134.6694348424076
 10
401.1309992607982
 20
134.5481312614603
 10
401.0454935020153
 20
134.401043364857
 10
400.9809662048049
 20
134.2319806518584
 10
400.9390885922694
 20
134.0453217579259
 10
400.9209452725762
 20
133.8459010503657
 10
400.9270061481748
 20
133.6388834207522
 10
400.9571142455719
 20
133.429630516951
 10
401.0104897808596
 20
133.2235618792556
 10
401.0857503557101
 20
133.0260145771389
 10
401.1809467607677
 20
132.8421049819591
 10
401.2936134591464
 20
132.6765962556282
 10
401.4208324425383
 20
132.53377498722
 10
401.5593088060994
 20
132.4173401725662
 10
401.7054560847512
 20
132.330307412206
 10
401.8554891407451
 20
132.274930808916
  0
LWPOLYLINE
  5
190
330
70
100
AcDbEntity
  8
0
 62
    18
420
        0
370
    25
100
AcDbPolyline
 90
       40
 70
     0
 43
0.0
 10
398.7502851723279
 20
126.6903825409101
 10
398.9003182283219
 20
126.6680963196278
 10
399.0464655069736
 20
126.679477681778
 10
399.1849418705348
 20
126.7242318560595
 10
399.3121608539267
 20
126.8011997328668
 10
399.4248275523054
 20
126.9083878846194
 10
399.520023957363
 20
127.0430201944908
 10
399.5952845322134
 20
127.201609756374
 10
399.6486600675012
 20
127.3800491839196
 10
399.6787681648982
 20
127.5737169896844
 10
399.6848290404969
 20
127.7775972792279
 10
399.6666857208038
 20
127.9864096601441
 10
399.6248081082681
 20
128.1947460014519
 10
399.5602808110571
 20
128.3972105013449
 10
399.4747750522749
 20
128.5885594356259
 10
399.3705053861581
 20
128.7638369674078
 10
399.2501723422906
 20
128.9185035006866
 10
399.1168924832995
 20
129.0485532534931
 10
398.9741176875238
 20
129.1506180055414
 10
398.8255457471791
 20
129.2220543333657
 10
398.6750245974775
 20
129.2610120735992
 10
398.5264526571322
 20
129.2664822412334
 10
398.3836778613571
 20
129.2383231617995
 10
398.250398002366
 20
129.1772641406641
 10
398.1300649584979
 20
129.0848865744014
 10
398.0257952923817
 20
128.9635829934541
 10
397.9402895335988
 20
128.8164950968511
 10
397.8757622363878
 20
128.6474323838522
 10
397.8338846238522
 20
128.46077348992
 10
397.8157413041591
 20
128.2613527823597
 10
397.8218021797584
 20
128.0543351527463
 10
397.8519102771554
 20
127.8450822489451
 10
397.9052858124425
 20
127.6390136112494
 10
397.9805463872936
 20
127.441466309133
 10
398.0757427923512
 20
127.2575567139529
 10
398.1884094907292
 20
127.092047987622
 10
398.3156284741217
 20
126.9492267192142
 10
398.454104837683
 20
126.8327919045603
 10
398.6002521163347
 20
126.7457591441998
 10
398.7502851723279
 20
126.6903825409101
  0
LWPOLYLINE
  5
191
330
70
100
AcDbEntity
  8
0
 62
    18
420
        0
370
    25
100
AcDbPolyline
 90
       40
 70
     0
 43
0.0
 10
398.7502851723279
 20
120.30214834695
 10
398.9003182283219
 20
120.279862125668
 10
399.0464655069736
 20
120.2912434878182
 10
399.1849418705348
 20
120.3359976620997
 10
399.3121608539267
 20
120.4129655389067
 10
399.4248275523054
 20
120.5201536906596
 10
399.520023957363
 20
120.6547860005307
 10
399.5952845322134
 20
120.8133755624139
 10
399.6486600675012
 20
120.9918149899598
 10
399.6787681648982
 20
121.1854827957246
 10
399.6848290404969
 20
121.3893630852681
 10
399.6666857208038
 20
121.5981754661843
 10
399.6248081082681
 20
121.8065118074921
 10
399.5602808110571
 20
122.0089763073851
 10
399.4747750522749
 20
122.2003252416658
 10
399.3705053861587
 20
122.3756027734481
 10
399.2501723422906
 20
122.5302693067268
 10
399.1168924832995
 20
122.6603190595333
 10
398.9741176875238
 20
122.7623838115816
 10
398.8255457471791
 20
122.8338201394059
 10
398.6750245974775
 20
122.8727778796394
 10
398.5264526571322
 20
122.8782480472733
 10
398.3836778613571
 20
122.8500889678397
 10
398.250398002366
 20
122.7890299467043
 10
398.1300649584979
 20
122.6966523804416
 10
398.0257952923817
 20
122.5753487994944
 10
397.9402895335988
 20
122.4282609028913
 10
397.8757622363878
 20
122.2591981898924
 10
397.8338846238522
 20
122.0725392959602
 10
397.8157413041591
 20
121.8731185883997
 10
397.8218021797584
 20
121.6661009587862
 10
397.8519102771554
 20
121.4568480549853
 10
397.9052858124425
 20
121.2507794172896
 10
397.9805463872936
 20
121.0532321151729
 10
398.0757427923512
 20
120.8693225199931
 10
398.1884094907292
 20
120.7038137936622
 10
398.3156284741217
 20
120.5609925252541
 10
398.4541048376824
 20
120.4445577106002
 10
398.6002521163347
 20
120.3575249502401
 10
398.7502851723279
 20
120.30214834695
  0
LWPOLYLINE
  5
192
330
70
100
AcDbEntity
  8
0
 62
    18
420
        0
370
    25
100
AcDbPolyline
 90
       26
 70
     0
 43
0.0
 10
402.7906966655623
 20
114.1276278940811
 10
402.7900330089139
 20
114.1974429653541
 10
402.7718896892202
 20
114.4062553462703
 10
402.7300120766846
 20
114.6145916875781
 10
402.6654847794736
 20
114.8170561874711
 10
402.5799790206914
 20
115.0084051217521
 10
402.4757093545752
 20
115.183682653534
 10
402.3553763107071
 20
115.3383491868128
 10
402.2220964517159
 20
115.4683989396193
 10
402.0793216559402
 20
115.5704636916676
 10
401.9307497155955
 20
115.6419000194919
 10
401.780228565894
 20
115.6808577597254
 10
401.6316566255487
 20
115.6863279273593
 10
401.4888818297736
 20
115.6581688479257
 10
401.3556019707825
 20
115.5971098267903
 10
401.2352689269143
 20
115.5047322605276
 10
401.1309992607982
 20
115.3834286795803
 10
401.0454935020153
 20
115.2363407829773
 10
400.9809662048049
 20
115.0672780699787
 10
400.9390885922686
 20
114.8806191760462
 10
400.9209452725756
 20
114.681198468486
 10
400.9270061481748
 20
114.4741808388725
 10
400.9571142455719
 20
114.2649279350713
 10
401.010489780859
 20
114.0588592973759
 10
401.0857503557101
 20
113.8613119952589
 10
401.1201426919142
 20
113.7886669233989
  0
LWPOLYLINE
  5
193
330
70
100
AcDbEntity
  8
0
 62
    18
420
        0
370
    25
100
AcDbPolyline
 90
        8
 70
     0
 43
0.0
 10
402.2296101007947
 20
132.8828191740658
 10
402.3462862828567
 20
132.8693729453438
 10
402.4578631558877
 20
132.8900179599502
 10
402.5594642751319
 20
132.9438519316809
 10
402.646649184141
 20
133.028522057647
 10
402.7156074840327
 20
133.1403278470517
 10
402.7633253662029
 20
133.274382850394
 10
402.7873717158977
 20
133.4205463923098
  0
LWPOLYLINE
  5
194
330
70
100
AcDbEntity
  8
0
 62
    18
420
        0
370
    25
100
AcDbPolyline
 90
       21
 70
     0
 43
0.0
 10
402.6063077060813
 20
134.1201240054806
 10
402.5594642751319
 20
134.1842175381514
 10
402.4578631558877
 20
134.2906441192101
 10
402.3462862828567
 20
134.3690455732833
 10
402.2296101007953
 20
134.4159953806162
 10
402.1129339187335
 20
134.4294416093382
 10
402.0013570457025
 20
134.4087965947318
 10
401.8997559264582
 20
134.3549626230011
 10
401.8125710174492
 20
134.270292497035
 10
401.7436127175574
 20
134.1584867076306
 10
401.6958948353878
 20
134.0244317042883
 10
401.671502871366
 20
133.8739863339214
 10
401.671502871366
 20
133.7137257811323
 10
401.6958948353878
 20
133.5506542010927
 10
401.7436127175574
 20
133.3918986043554
 10
401.8125710174492
 20
133.2443973722912
 10
401.8997559264589
 20
133.1145970165306
 10
402.0013570457025
 20
133.0081704354719
 10
402.1129339187335
 20
132.9297689813987
 10
402.2296101007947
 20
132.8828191740658
 10
402.2296101007947
 20
132.8828191740658
  0
SPLINE
  5
195
330
70
100
AcDbEntity
  8
0
 62
    18
420
        0
370
    25
100
AcDbSpline
210
0.0
220
0.0
230
1.0
 70
     8
 71
     3
 72
     8
 73
     4
 74
     0
 42
0.0000000001
 43
0.0000000001
 40
0.0
 40
0.0
 40
0.0
 40
0.0
 40
1.0
 40
1.0
 40
1.0
 40
1.0
 10
401.8554891407451
 20
133.843066536607
 30
0.0
 10
401.8027192093898
 20
133.4091315547225
 30
0.0
 10
402.0909238895946
 20
133.0070293701569
 30
0.0
 10
402.5188106621071
 20
132.9176026176316
 30
0.0
  0
SPLINE
  5
196
330
70
100
AcDbEntity
  8
0
 62
    18
420
        0
370
    25
100
AcDbSpline
210
0.0
220
0.0
230
1.0
 70
     8
 71
     3
 72
     8
 73
     4
 74
     0
 42
0.0000000001
 43
0.0000000001
 40
0.0
 40
0.0
 40
0.0
 40
0.0
 40
1.0
 40
1.0
 40
1.0
 40
1.0
 10
402.1274700195117
 20
134.4296267518679
 30
0.0
 10
401.9406645589823
 20
134.2949645286397
 30
0.0
 10
401.8375809334044
 20
134.0726520121023
 30
0.0
 10
401.8554891407451
 20
133.843066536607
 30
0.0
  0
SPLINE
  5
197
330
70
100
AcDbEntity
  8
0
 62
    18
420
        0
370
    25
100
AcDbSpline
210
0.0
220
0.0
230
1.0
 70
     8
 71
     3
 72
     8
 73
     4
 74
     0
 42
0.0000000001
 43
0.0000000001
 40
0.0
 40
0.0
 40
0.0
 40
0.0
 40
1.0
 40
1.0
 40
1.0
 40
1.0
 10
401.1820714126545
 20
137.2114769669269
 30
0.0
 10
400.8351430310185
 20
137.3050893102606
 30
0.0
 10
400.4700161913645
 20
137.3082580785132
 30
0.0
 10
400.1215153503012
 20
137.2206810462089
 30
0.0
  0
LWPOLYLINE
  5
198
330
70
100
AcDbEntity
  8
0
 62
    18
420
        0
370
    25
100
AcDbPolyline
 90
        8
 70
     0
 43
0.0
 10
399.1244061323783
 20
127.2982709060599
 10
399.2410823144402
 20
127.284824677338
 10
399.3526591874712
 20
127.3054696919443
 10
399.4542603067148
 20
127.3593036636748
 10
399.5414452157246
 20
127.4439737896411
 10
399.6104035156163
 20
127.5557795790455
 10
399.6581213977858
 20
127.6898345823881
 10
399.6821677474806
 20
127.8359981242988
  0
LWPOLYLINE
  5
199
330
70
100
AcDbEntity
  8
0
 62
    18
420
        0
370
    25
100
AcDbPolyline
 90
       21
 70
     0
 43
0.0
 10
399.5011037376623
 20
128.5355757374785
 10
399.4542603067148
 20
128.5996692701455
 10
399.3526591874712
 20
128.7060958512042
 10
399.2410823144402
 20
128.7844973052774
 10
399.1244061323783
 20
128.8314471126103
 10
399.007729950317
 20
128.8448933413323
 10
398.896153077286
 20
128.8242483267256
 10
398.7945519580418
 20
128.7704143549952
 10
398.7073670490326
 20
128.6857442290292
 10
398.6384087491409
 20
128.5739384396245
 10
398.5906908669708
 20
128.4398834362821
 10
398.5662989029495
 20
128.2894380659152
 10
398.5662989029495
 20
128.1291775131261
 10
398.5906908669708
 20
127.9661059330869
 10
398.6384087491409
 20
127.8073503363492
 10
398.7073670490326
 20
127.659849104285
 10
398.7945519580418
 20
127.5300487485247
 10
398.896153077286
 20
127.423622167466
 10
399.007729950317
 20
127.3452207133928
 10
399.1244061323783
 20
127.2982709060599
 10
399.1244061323783
 20
127.2982709060599
  0
LINE
  5
19A
330
70
100
AcDbEntity
  8
0
 62
    18
420
        0
370
    25
100
AcDbLine
 10
402.7686746662689
 20
114.1320933002872
 30
0.0
 11
402.7873717158964
 21
114.2558438104192
 31
0.0
  0
LWPOLYLINE
  5
19B
330
70
100
AcDbEntity
  8
0
 62
    18
420
        0
370
    25
100
AcDbPolyline
 90
       17
 70
     0
 43
0.0
 10
402.6063077060755
 20
114.9554214236092
 10
402.5594642751313
 20
115.0195149562718
 10
402.4578631558877
 20
115.1259415373304
 10
402.3462862828567
 20
115.2043429914036
 10
402.2296101007947
 20
115.2512927987366
 10
402.1129339187335
 20
115.2647390274582
 10
402.0013570457025
 20
115.2440940128518
 10
401.8997559264582
 20
115.1902600411214
 10
401.8125710174492
 20
115.1055899151554
 10
401.7436127175574
 20
114.9937841257506
 10
401.6958948353872
 20
114.8597291224083
 10
401.671502871366
 20
114.7092837520414
 10
401.671502871366
 20
114.5490231992523
 10
401.6958948353872
 20
114.3859516192131
 10
401.7436127175574
 20
114.2271960224754
 10
401.8125710174492
 20
114.0796947904112
 10
401.8259128913079
 20
114.0566965188257
  0
SPLINE
  5
19C
330
70
100
AcDbEntity
  8
0
 62
    18
420
        0
370
    25
100
AcDbSpline
210
0.0
220
0.0
230
1.0
 70
     8
 71
     3
 72
     8
 73
     4
 74
     0
 42
0.0000000001
 43
0.0000000001
 40
0.0
 40
0.0
 40
0.0
 40
0.0
 40
1.0
 40
1.0
 40
1.0
 40
1.0
 10
398.7502851723279
 20
128.2585182686011
 30
0.0
 10
398.6975152409727
 20
127.8245832867156
 30
0.0
 10
398.9857199211788
 20
127.4224811021494
 30
0.0
 10
399.4136066936925
 20
127.3330543496257
 30
0.0
  0
SPLINE
  5
19D
330
70
100
AcDbEntity
  8
0
 62
    18
420
        0
370
    25
100
AcDbSpline
210
0.0
220
0.0
230
1.0
 70
     8
 71
     3
 72
     8
 73
     4
 74
     0
 42
0.0000000001
 43
0.0000000001
 40
0.0
 40
0.0
 40
0.0
 40
0.0
 40
1.0
 40
1.0
 40
1.0
 40
1.0
 10
399.0222660510965
 20
128.8450784838627
 30
0.0
 10
398.8354605905659
 20
128.7104162606348
 30
0.0
 10
398.7323769649872
 20
128.4881037440967
 30
0.0
 10
398.7502851723286
 20
128.2585182686011
 30
0.0
  0
SPLINE
  5
19E
330
70
100
AcDbEntity
  8
0
 62
    18
420
        0
370
    25
100
AcDbSpline
210
0.0
220
0.0
230
1.0
 70
     8
 71
     3
 72
     8
 73
     4
 74
     0
 42
0.0000000001
 43
0.0000000001
 40
0.0
 40
0.0
 40
0.0
 40
0.0
 40
1.0
 40
1.0
 40
1.0
 40
1.0
 10
401.8554891407451
 20
114.6783639547273
 30
0.0
 10
401.8560704744635
 20
114.4766748773379
 30
0.0
 10
401.9104334211834
 20
114.27879029181
 30
0.0
 10
402.0129733713334
 20
114.1051113336419
 30
0.0
  0
SPLINE
  5
19F
330
70
100
AcDbEntity
  8
0
 62
    18
420
        0
370
    25
100
AcDbSpline
210
0.0
220
0.0
230
1.0
 70
     8
 71
     3
 72
     8
 73
     4
 74
     0
 42
0.0000000001
 43
0.0000000001
 40
0.0
 40
0.0
 40
0.0
 40
0.0
 40
1.0
 40
1.0
 40
1.0
 40
1.0
 10
402.1274700195599
 20
115.2649241700152
 30
0.0
 10
401.9406645589996
 20
115.130261946796
 30
0.0
 10
401.8375809334005
 20
114.9079494302418
 30
0.0
 10
401.8554891407451
 20
114.6783639547273
 30
0.0
  0
LWPOLYLINE
  5
1A0
330
70
100
AcDbEntity
  8
0
 62
    18
420
        0
370
    25
100
AcDbPolyline
 90
        8
 70
     0
 43
0.0
 10
399.1244061323783
 20
120.9100367120998
 10
399.2410823144402
 20
120.8965904833779
 10
399.3526591874712
 20
120.9172354979842
 10
399.4542603067148
 20
120.971069469715
 10
399.5414452157246
 20
121.055739595681
 10
399.6104035156156
 20
121.1675453850857
 10
399.6581213977858
 20
121.301600388428
 10
399.6821677474793
 20
121.4477639303294
  0
LWPOLYLINE
  5
1A1
330
70
100
AcDbEntity
  8
0
 62
    18
420
        0
370
    25
100
AcDbPolyline
 90
       21
 70
     0
 43
0.0
 10
399.5011037376571
 20
122.1473415435255
 10
399.4542603067148
 20
122.2114350761854
 10
399.3526591874712
 20
122.3178616572441
 10
399.2410823144402
 20
122.3962631113173
 10
399.1244061323783
 20
122.4432129186502
 10
399.007729950317
 20
122.4566591473722
 10
398.896153077286
 20
122.4360141327658
 10
398.7945519580418
 20
122.3821801610351
 10
398.7073670490326
 20
122.2975100350691
 10
398.6384087491409
 20
122.1857042456646
 10
398.5906908669708
 20
122.051649242322
 10
398.5662989029495
 20
121.9012038719554
 10
398.5662989029495
 20
121.740943319166
 10
398.5906908669708
 20
121.5778717391268
 10
398.6384087491409
 20
121.4191161423894
 10
398.7073670490326
 20
121.2716149103252
 10
398.7945519580418
 20
121.1418145545646
 10
398.896153077286
 20
121.0353879735059
 10
399.007729950317
 20
120.9569865194327
 10
399.1244061323783
 20
120.9100367120998
 10
399.1244061323783
 20
120.9100367120998
  0
SPLINE
  5
1A2
330
70
100
AcDbEntity
  8
0
 62
    18
420
        0
370
    25
100
AcDbSpline
210
0.0
220
0.0
230
1.0
 70
     8
 71
     3
 72
     8
 73
     4
 74
     0
 42
0.0000000001
 43
0.0000000001
 40
0.0
 40
0.0
 40
0.0
 40
0.0
 40
1.0
 40
1.0
 40
1.0
 40
1.0
 10
398.7502851723279
 20
121.870284074641
 30
0.0
 10
398.6975152409739
 20
121.4363490927571
 30
0.0
 10
398.9857199211769
 20
121.0342469081919
 30
0.0
 10
399.4136066936887
 20
120.9448201556656
 30
0.0
  0
SPLINE
  5
1A3
330
70
100
AcDbEntity
  8
0
 62
    18
420
        0
370
    25
100
AcDbSpline
210
0.0
220
0.0
230
1.0
 70
     8
 71
     3
 72
     8
 73
     4
 74
     0
 42
0.0000000001
 43
0.0000000001
 40
0.0
 40
0.0
 40
0.0
 40
0.0
 40
1.0
 40
1.0
 40
1.0
 40
1.0
 10
399.0222660510939
 20
122.4568442899013
 30
0.0
 10
398.8354605905645
 20
122.3221820666728
 30
0.0
 10
398.7323769649878
 20
122.0998695501356
 30
0.0
 10
398.7502851723279
 20
121.870284074641
 30
0.0
  0
LWPOLYLINE
  5
1A4
330
70
100
AcDbEntity
  8
0
 62
    18
420
        0
370
    25
100
AcDbPolyline
 90
       21
 70
     0
 43
0.0
 10
405.4690597301654
 20
136.4005594175802
 10
405.6467295803197
 20
136.3503744515207
 10
405.8481884453526
 20
136.3066209857299
 10
406.0699893082292
 20
136.2700476541385
 10
406.3083370946903
 20
136.2412802365901
 10
406.5591536080273
 20
136.2208109515744
 10
406.818147308157
 20
136.2089900342339
 10
407.0808867410644
 20
136.2060197437409
 10
407.3428763622071
 20
136.2119509025895
 10
407.5996334565299
 20
136.2266820270077
 10
407.8467648389625
 20
136.2499610633721
 10
408.0800420230334
 20
136.2813897009168
 10
408.2954735714475
 20
136.3204301869391
 10
408.4893733906809
 20
136.3664145278994
 10
408.6584238010688
 20
136.4185559189747
 10
408.7997323032192
 20
136.4759622065075
 10
408.910881069482
 20
136.5376511530017
 10
408.9899683136506
 20
136.6025672434793
 10
409.0356408310501
 20
136.6695997456345
 10
409.0471171522445
 20
136.7376017147706
 10
409.046270639149
 20
136.7451423747465
  0
LWPOLYLINE
  5
1A5
330
70
100
AcDbEntity
  8
0
 62
    18
420
        0
370
    25
100
AcDbPolyline
 90
        3
 70
     0
 43
0.0
 10
409.0395139501638
 20
136.7728674086752
 10
409.0242009141975
 20
136.8054096183413
 10
408.9814589260312
 20
136.8586279321098
  0
LWPOLYLINE
  5
1A6
330
70
100
AcDbEntity
  8
0
 62
    18
420
        0
370
    25
100
AcDbPolyline
 90
        3
 70
     0
 43
0.0
 10
405.0926699488494
 20
136.8586279321101
 10
405.08416056123
 20
136.8499520925053
 10
405.0474481960722
 20
136.8011203745393
  0
LWPOLYLINE
  5
1A7
330
70
100
AcDbEntity
  8
0
 62
    18
420
        0
370
    25
100
AcDbPolyline
 90
        7
 70
     0
 43
0.0
 10
405.0290328837381
 20
136.7521953379817
 10
405.027011722636
 20
136.714917621214
 10
405.0499279606837
 20
136.647109717643
 10
405.1068446547866
 20
136.5806560916673
 10
405.1967879445291
 20
136.5166937832511
 10
405.318218875286
 20
136.4563172052257
 10
405.4690597301654
 20
136.4005594175802
  0
LWPOLYLINE
  5
1A8
330
70
100
AcDbEntity
  8
0
 62
    18
420
        0
370
    25
100
AcDbPolyline
 90
       23
 70
     0
 43
0.0
 10
405.4484280892802
 20
136.3707209511939
 10
405.6245099519847
 20
136.320850961377
 10
405.8237859202877
 20
136.2772181927996
 10
406.0429838882996
 20
136.2405390943146
 10
406.2785046314454
 20
136.2114159357057
 10
406.5264809056347
 20
136.1903269184319
 10
406.7828409472999
 20
136.1776183235737
 10
407.0433753316447
 20
136.1734988259076
 10
407.3038060912818
 20
136.178036067471
 10
407.5598569603367
 20
136.1911555468833
 10
407.8073235906191
 20
136.212641842655
 10
408.0421425869009
 20
136.2421421504038
 10
408.2604582277559
 20
136.2791720758915
 10
408.458685776397
 20
136.323123588766
 10
408.6335703419544
 20
136.3732750064002
 10
408.7822403246981
 20
136.4288028439039
 10
408.9022545676207
 20
136.4887953357202
 10
408.9916424401716
 20
136.5522674067917
 10
409.0489361959551
 20
136.6181768474665
 10
409.0731950730849
 20
136.6854414265508
 10
409.0640207414694
 20
136.7529566615155
 10
409.0215638433795
 20
136.8196139540694
 10
408.9862391818273
 20
136.8538315008763
  0
LWPOLYLINE
  5
1A9
330
70
100
AcDbEntity
  8
0
 62
    18
420
        0
370
    25
100
AcDbPolyline
 90
        9
 70
     0
 43
0.0
 10
405.0878896930661
 20
136.8538315008872
 10
405.0497564193562
 20
136.8164290993203
 10
405.0088961510958
 20
136.7497049976175
 10
405.0013383500263
 20
136.6821763457353
 10
405.0272071150307
 20
136.6149519622704
 10
405.0860776817039
 20
136.5491356697404
 10
405.1769833969687
 20
136.4858081698497
 10
405.2984315914929
 20
136.4260092983957
 10
405.4484280892802
 20
136.3707209511939
  0
LWPOLYLINE
  5
1AA
330
70
100
AcDbEntity
  8
0
 62
    18
420
        0
370
    25
100
AcDbPolyline
 90
       21
 70
     0
 43
0.0
 10
405.4484280892802
 20
136.1662974569872
 10
405.6245099519847
 20
136.1164274671703
 10
405.8237859202877
 20
136.0727946985925
 10
406.0429838882996
 20
136.0361156001079
 10
406.2785046314454
 20
136.006992441499
 10
406.5264809056347
 20
135.9859034242252
 10
406.7828409472999
 20
135.973194829367
 10
407.0433753316447
 20
135.9690753317009
 10
407.3038060912818
 20
135.9736125732643
 10
407.5598569603367
 20
135.9867320526766
 10
407.8073235906191
 20
136.0082183484483
 10
408.0421425869009
 20
136.0377186561971
 10
408.2604582277559
 20
136.0747485816848
 10
408.458685776397
 20
136.1187000945593
 10
408.6335703419544
 20
136.1688515121935
 10
408.7822403246981
 20
136.2243793496972
 10
408.9022545676207
 20
136.2843718415135
 10
408.9916424401716
 20
136.347843912585
 10
409.0489361959551
 20
136.4137533532598
 10
409.0731950730849
 20
136.4810179323441
 10
409.0740491397737
 20
136.4962832370098
  0
LWPOLYLINE
  5
1AB
330
70
100
AcDbEntity
  8
0
 62
    18
420
        0
370
    25
100
AcDbPolyline
 90
        7
 70
     0
 43
0.0
 10
405.0000797351067
 20
136.4962832370098
 10
405.0013383500263
 20
136.4777528515286
 10
405.0272071150307
 20
136.4105284680634
 10
405.0860776817039
 20
136.3447121755337
 10
405.1769833969687
 20
136.281384675643
 10
405.2984315914929
 20
136.221585804189
 10
405.4484280892802
 20
136.1662974569872
  0
LWPOLYLINE
  5
1AC
330
70
100
AcDbEntity
  8
0
 62
    18
420
        0
370
    25
100
AcDbPolyline
 90
       18
 70
     0
 43
0.0
 10
405.4690597301654
 20
136.1450300498219
 10
405.6467295803197
 20
136.0948450837624
 10
405.8481884453526
 20
136.0510916179716
 10
406.0699893082292
 20
136.0145182863802
 10
406.3083370946903
 20
135.9857508688315
 10
406.5591536080273
 20
135.9652815838161
 10
406.818147308157
 20
135.9534606664752
 10
407.0808867410644
 20
135.9504903759823
 10
407.3428763622071
 20
135.9564215348312
 10
407.5996334565299
 20
135.9711526592494
 10
407.8467648389625
 20
135.9944316956138
 10
408.0800420230334
 20
136.0258603331582
 10
408.2954735714475
 20
136.0649008191808
 10
408.4893733906809
 20
136.1108851601411
 10
408.6584238010688
 20
136.1630265512164
 10
408.7997323032192
 20
136.2204328387488
 10
408.910881069482
 20
136.282121785243
 10
408.986239181783
 20
136.3431584673073
  0
LWPOLYLINE
  5
1AD
330
70
100
AcDbEntity
  8
0
 62
    18
420
        0
370
    25
100
AcDbPolyline
 90
       48
 70
     0
 43
0.0
 10
408.4119589656249
 20
138.2319907118064
 10
408.5829469585326
 20
138.1813856309051
 10
408.7263486412296
 20
138.125333467019
 10
408.8396050072896
 20
138.0648344723402
 10
408.9206949941775
 20
138.0009682528616
 10
408.9681715491569
 20
137.9348745027836
 10
408.9811874519786
 20
137.8677326666418
 10
408.9595104335489
 20
137.8007408920925
 10
408.9035273207749
 20
137.73509464894
 10
408.8142371336304
 20
137.6719653959485
 10
408.6932332576205
 20
137.6124796761328
 10
408.5426750097792
 20
137.5576990135724
 10
408.3652491056062
 20
137.5086009704889
 10
408.1641217145641
 20
137.4660617026237
 10
407.9428819597112
 20
137.4308403242202
 10
407.7054778697144
 20
137.40356536161
 10
407.456145926183
 20
137.3847235371471
 10
407.1993354635575
 20
137.3746510836356
 10
406.9396292706269
 20
137.3735277442468
 10
406.6816618105555
 20
137.3813735649989
 10
406.4300365187808
 20
137.3980485370343
 10
406.1892436545958
 20
137.4232550950827
 10
405.9635801723656
 20
137.4565434275178
 10
405.757073042277
 20
137.4973195032593
 10
405.5734073889584
 20
137.5448556722694
 10
405.4158607303447
 20
137.5983036504857
 10
405.2872444902916
 20
137.6567096574712
 10
405.1898538286491
 20
137.719031436647
 10
405.1254266840817
 20
137.7841568543877
 10
405.0951127605101
 20
137.8509237460708
 10
405.0994530106198
 20
137.9181406549326
 10
405.1383699825431
 20
137.9846080936418
 10
405.2111692019956
 20
138.04913994918
 10
405.3165515651809
 20
138.1105846490562
 10
405.4526365213314
 20
138.167845711146
 10
405.6169956311804
 20
138.2199013104395
 10
405.8066959025191
 20
138.265822513534
 10
406.0183521295116
 20
138.3047898554726
 10
406.2481873017725
 20
138.3361079631152
 10
406.4921000052088
 20
138.3592179640888
 10
406.7457376118486
 20
138.3737074598791
 10
407.0045739525924
 20
138.3793178850895
 10
407.2639900868081
 20
138.3759491215502
 10
407.5193567274349
 20
138.3636612849256
 10
407.7661168507209
 20
138.3426736519519
 10
407.9998670164211
 20
138.3133607474366
 10
408.2164359472892
 20
138.276245660855
 10
408.4119589656249
 20
138.2319907118064
  0
LINE
  5
1AE
330
70
100
AcDbEntity
  8
0
 62
    18
420
        0
370
    25
100
AcDbLine
 10
406.8354587305443
 20
137.681405663887
 30
0.0
 11
407.5878614717761
 21
137.7335850604331
 31
0.0
  0
LINE
  5
1AF
330
70
100
AcDbEntity
  8
0
 62
    18
420
        0
370
    25
100
AcDbLine
 10
407.5878614717761
 20
137.7335850604331
 30
0.0
 11
407.7894671786721
 21
137.9283212194512
 31
0.0
  0
LINE
  5
1B0
330
70
100
AcDbEntity
  8
0
 62
    18
420
        0
370
    25
100
AcDbLine
 10
407.7894671786721
 20
137.9283212194512
 30
0.0
 11
407.2386701443362
 21
138.0708779819233
 31
0.0
  0
LINE
  5
1B1
330
70
100
AcDbEntity
  8
0
 62
    18
420
        0
370
    25
100
AcDbLine
 10
407.2386701443362
 20
138.0708779819233
 30
0.0
 11
406.4862674031044
 21
138.0186985853772
 31
0.0
  0
LINE
  5
1B2
330
70
100
AcDbEntity
  8
0
 62
    18
420
        0
370
    25
100
AcDbLine
 10
406.4862674031044
 20
138.0186985853772
 30
0.0
 11
406.2846616962085
 21
137.8239624263591
 31
0.0
  0
LINE
  5
1B3
330
70
100
AcDbEntity
  8
0
 62
    18
420
        0
370
    25
100
AcDbLine
 10
406.2846616962085
 20
137.8239624263591
 30
0.0
 11
406.8354587305443
 21
137.681405663887
 31
0.0
  0
LWPOLYLINE
  5
1B4
330
70
100
AcDbEntity
  8
0
 62
    18
420
        0
370
    25
100
AcDbPolyline
 90
       26
 70
     0
 43
0.0
 10
408.9814589260312
 20
136.7262596679923
 10
408.9811874519786
 20
136.717850511729
 10
408.9595104335489
 20
136.6508587371797
 10
408.9035273207749
 20
136.5852124940272
 10
408.8142371336304
 20
136.5220832410356
 10
408.6932332576205
 20
136.46259752122
 10
408.5426750097792
 20
136.4078168586596
 10
408.3652491056062
 20
136.3587188155761
 10
408.1641217145641
 20
136.3161795477112
 10
407.9428819597112
 20
136.2809581693074
 10
407.7054778697144
 20
136.2536832066972
 10
407.456145926183
 20
136.2348413822342
 10
407.1993354635575
 20
136.2247689287227
 10
406.9396292706269
 20
136.223645589334
 10
406.6816618105555
 20
136.2314914100861
 10
406.4300365187808
 20
136.2481663821214
 10
406.1892436545958
 20
136.2733729401699
 10
405.9635801723656
 20
136.3066612726053
 10
405.757073042277
 20
136.3474373483465
 10
405.5734073889584
 20
136.3949735173565
 10
405.4158607303447
 20
136.4484214955732
 10
405.2872444902916
 20
136.5068275025584
 10
405.1898538286491
 20
136.5691492817341
 10
405.1254266840817
 20
136.6342746994752
 10
405.0951127605101
 20
136.7010415911583
 10
405.0926699488494
 20
136.7262596679923
  0
LINE
  5
1B5
330
70
100
AcDbEntity
  8
0
 62
    18
420
        0
370
    25
100
AcDbLine
 10
405.8217218128145
 20
108.2945766273377
 30
0.0
 11
405.8217218128145
 21
110.4819707707702
 31
0.0
  0
LWPOLYLINE
  5
1B6
330
70
100
AcDbEntity
  8
0
 62
    18
420
        0
370
    25
100
AcDbPolyline
 90
        3
 70
     0
 43
0.0
 10
405.7937101386131
 20
108.3624998468099
 10
405.7950440308021
 20
108.34759757322
 10
405.8217218128139
 20
108.2945766273377
  0
LWPOLYLINE
  5
1B7
330
70
100
AcDbEntity
  8
0
 62
    18
420
        0
370
    25
100
AcDbPolyline
 90
       12
 70
     0
 43
0.0
 10
406.7746292698678
 20
108.047946029232
 10
406.9794864737158
 20
108.0410413111661
 10
407.1859332208964
 20
108.0430110346261
 10
407.3882701773348
 20
108.0538008218503
 10
407.5809114671269
 20
108.0731128013397
 10
407.7585388806996
 20
108.1004138311374
 10
407.916248693558
 20
108.1349502171724
 10
408.0496870424291
 20
108.1757685203399
 10
408.1551701214934
 20
108.2217418779046
 10
408.2297858804753
 20
108.2716011125762
 10
408.2714744170351
 20
108.3239697704303
 10
408.2804187362668
 20
108.3624998468099
  0
LINE
  5
1B8
330
70
100
AcDbEntity
  8
0
 62
    18
420
        0
370
    25
100
AcDbLine
 10
406.7746292698678
 20
108.047946029232
 30
0.0
 11
406.7746292698678
 21
110.3846218700597
 31
0.0
  0
LINE
  5
1B9
330
70
100
AcDbEntity
  8
0
 62
    18
420
        0
370
    25
100
AcDbLine
 10
406.4862674031044
 20
137.771783029813
 30
0.0
 11
406.4862674031044
 21
138.0186985853772
 31
0.0
  0
LINE
  5
1BA
330
70
100
AcDbEntity
  8
0
 62
    18
420
        0
370
    25
100
AcDbLine
 10
407.2386701443362
 20
137.7093685182191
 30
0.0
 11
407.2386701443362
 21
138.0708779819233
 31
0.0
  0
LINE
  5
1BB
330
70
100
AcDbEntity
  8
0
 62
    18
420
        0
370
    25
100
AcDbLine
 10
405.8949094148655
 20
108.2500813452856
 30
0.0
 11
405.8949094148655
 21
108.1734225349582
 31
0.0
  0
LINE
  5
1BC
330
70
100
AcDbEntity
  8
0
 62
    18
420
        0
370
    25
100
AcDbLine
 10
405.8949094148655
 20
108.2500813452856
 30
0.0
 11
405.8571926098539
 21
108.2598431727431
 31
0.0
  0
LINE
  5
1BD
330
70
100
AcDbEntity
  8
0
 62
    18
420
        0
370
    25
100
AcDbLine
 10
405.8217218128145
 20
108.2945766273377
 30
0.0
 11
405.8571926098539
 21
108.2598431727431
 31
0.0
  0
LINE
  5
1BE
330
70
100
AcDbEntity
  8
0
 62
    18
420
        0
370
    25
100
AcDbLine
 10
406.7391584728285
 20
108.0315736102751
 30
0.0
 11
406.7746292698678
 21
108.047946029232
 31
0.0
  0
LINE
  5
1BF
330
70
100
AcDbEntity
  8
0
 62
    18
420
        0
370
    25
100
AcDbLine
 10
406.7391584728285
 20
108.0315736102751
 30
0.0
 11
406.7014416678168
 21
108.0413354377322
 31
0.0
  0
LINE
  5
1C0
330
70
100
AcDbEntity
  8
0
 62
    18
420
        0
370
    25
100
AcDbLine
 10
406.7014416678168
 20
107.9646766274048
 30
0.0
 11
406.7014416678168
 21
108.0413354377322
 31
0.0
  0
SPLINE
  5
1C1
330
70
100
AcDbEntity
  8
0
 62
    18
420
        0
370
    25
100
AcDbSpline
210
0.0
220
0.0
230
1.0
 70
     8
 71
     3
 72
     8
 73
     4
 74
     0
 42
0.0000000001
 43
0.0000000001
 40
0.0
 40
0.0
 40
0.0
 40
0.0
 40
1.0
 40
1.0
 40
1.0
 40
1.0
 10
406.7391584728285
 20
108.0315736102751
 30
0.0
 10
407.2403187387916
 20
107.9614267561384
 30
0.0
 10
407.7510666224955
 20
108.0381899490413
 30
0.0
 10
408.2094660624835
 20
108.2525544674303
 30
0.0
  0
LWPOLYLINE
  5
1C2
330
70
100
AcDbEntity
  8
0
 62
    18
420
        0
370
    25
100
AcDbPolyline
 90
       23
 70
     0
 43
0.0
 10
400.2491056616727
 20
106.4137413824145
 10
400.3132049911934
 20
106.4272125363574
 10
400.4699334689146
 20
106.4355140267933
 10
400.6302429965806
 20
106.4104336664224
 10
400.7905525242466
 20
106.3525317090508
 10
400.9472810019678
 20
106.2631015887263
 10
401.0969273745386
 20
106.1441410265585
 10
401.2361487892783
 20
105.9983074049293
 10
401.3618352698381
 20
105.8288584059635
 10
401.4711791879332
 20
105.6395792402917
 10
401.5617379811191
 20
105.4346980917007
 10
401.6314887155992
 20
105.2187916664941
 10
401.6788732752253
 20
104.9966829574365
 10
401.7028331672363
 20
104.7733335060642
 10
401.7028331672363
 20
104.5537325700476
 10
401.6788732752253
 20
104.3427856714176
 10
401.6314887155992
 20
104.1452050153098
 10
401.5617379811191
 20
103.9654042270901
 10
401.4711791879332
 20
103.807399759255
 10
401.3618352698381
 20
103.6747211705216
 10
401.2361487892783
 20
103.5703322813172
 10
401.0969273745386
 20
103.4965649669298
 10
401.0044863765335
 20
103.4667907474867
  0
LINE
  5
1C3
330
70
100
AcDbEntity
  8
0
 62
    18
420
        0
370
    25
100
AcDbLine
 10
403.6043833941127
 20
113.7587155731425
 30
0.0
 11
403.6043833941127
 21
136.2940476040462
 31
0.0
  0
LINE
  5
1C4
330
70
100
AcDbEntity
  8
0
 62
    18
420
        0
370
    25
100
AcDbLine
 10
404.5396501367402
 20
136.2940383759103
 30
0.0
 11
404.5396501367402
 21
112.7177857160399
 31
0.0
  0
LINE
  5
1C5
330
70
100
AcDbEntity
  8
0
 62
    18
420
        0
370
    25
100
AcDbLine
 10
409.046270639149
 20
136.7451423747465
 30
0.0
 11
409.0395139501638
 21
136.7728674086752
 31
0.0
  0
LWPOLYLINE
  5
1C6
330
70
100
AcDbEntity
  8
0
 62
    18
420
        0
370
    25
100
AcDbPolyline
 90
        3
 70
     0
 43
0.0
 10
405.0474481960722
 20
136.8011203745393
 10
405.0384880438305
 20
136.7829195903497
 10
405.0290328837381
 20
136.7521953379817
  0
LINE
  5
1C7
330
70
100
AcDbEntity
  8
0
 62
    18
420
        0
370
    25
100
AcDbLine
 10
358.4281723550594
 20
46.52891323110416
 30
0.0
 11
358.4281723550594
 21
45.81464078449508
 31
0.0
  0
LINE
  5
1C8
330
70
100
AcDbEntity
  8
0
 62
    18
420
        0
370
    25
100
AcDbLine
 10
358.4281723550594
 20
48.98916239852153
 30
0.0
 11
358.4281723550594
 21
48.27489979540952
 31
0.0
  0
LINE
  5
1C9
330
70
100
AcDbEntity
  8
0
 62
    18
420
        0
370
    25
100
AcDbLine
 10
361.7349657030033
 20
47.5738548456013
 30
0.0
 11
361.7349657030033
 21
48.98916239852153
 31
0.0
  0
LINE
  5
1CA
330
70
100
AcDbEntity
  8
0
 62
    18
420
        0
370
    25
100
AcDbLine
 10
361.7349657030033
 20
45.81464078449508
 30
0.0
 11
361.7349657030033
 21
47.22994833741529
 31
0.0
  0
LINE
  5
1CB
330
70
100
AcDbEntity
  8
0
 62
    18
420
        0
370
    25
100
AcDbLine
 10
361.7349657030033
 20
48.98916239852153
 30
0.0
 11
361.6026939690855
 21
49.12143413243967
 31
0.0
  0
LINE
  5
1CC
330
70
100
AcDbEntity
  8
0
 62
    18
420
        0
370
    25
100
AcDbLine
 10
358.5604440889769
 20
49.12143413243967
 30
0.0
 11
358.4281723550594
 21
48.98916239852153
 31
0.0
  0
LINE
  5
1CD
330
70
100
AcDbEntity
  8
0
 62
    18
420
        0
370
    25
100
AcDbLine
 10
358.4281723550594
 20
45.81464078449508
 30
0.0
 11
358.5604440889769
 21
45.68236905057758
 31
0.0
  0
LINE
  5
1CE
330
70
100
AcDbEntity
  8
0
 62
    18
420
        0
370
    25
100
AcDbLine
 10
361.6026939690855
 20
45.68236905057758
 30
0.0
 11
361.7349657030033
 21
45.81464078449508
 31
0.0
  0
LINE
  5
1CF
330
70
100
AcDbEntity
  8
0
 62
    18
420
        0
370
    25
100
AcDbLine
 10
354.1954768696911
 20
46.34372772016637
 30
0.0
 11
356.8409115480462
 21
46.34372772016637
 31
0.0
  0
LINE
  5
1D0
330
70
100
AcDbEntity
  8
0
 62
    18
420
        0
370
    25
100
AcDbLine
 10
356.8409115480462
 20
48.46007546285024
 30
0.0
 11
354.1954768696911
 21
48.46007546285024
 31
0.0
  0
LINE
  5
1D1
330
70
100
AcDbEntity
  8
0
 62
    18
420
        0
370
    25
100
AcDbLine
 10
356.8409115480462
 20
46.34372772016637
 30
0.0
 11
356.973183281964
 21
46.47599945408386
 31
0.0
  0
LINE
  5
1D2
330
70
100
AcDbEntity
  8
0
 62
    18
420
        0
370
    25
100
AcDbLine
 10
356.973183281964
 20
48.32780372893275
 30
0.0
 11
356.8409115480462
 21
48.46007546285024
 31
0.0
  0
LINE
  5
1D3
330
70
100
AcDbEntity
  8
0
 62
    18
420
        0
370
    25
100
AcDbLine
 10
358.428178865117
 20
48.27489503536561
 30
0.0
 11
356.973183281964
 21
48.27489503536561
 31
0.0
  0
LINE
  5
1D4
330
70
100
AcDbEntity
  8
0
 62
    18
420
        0
370
    25
100
AcDbLine
 10
356.973183281964
 20
46.528908147651
 30
0.0
 11
358.4281787710738
 21
46.528908147651
 31
0.0
  0
LINE
  5
1D5
330
70
100
AcDbEntity
  8
0
 62
    18
420
        0
370
    25
100
AcDbLine
 10
354.1954768696911
 20
56.29056211078211
 30
0.0
 11
353.5341182001022
 21
56.29056211078211
 31
0.0
  0
LINE
  5
1D6
330
70
100
AcDbEntity
  8
0
 62
    18
420
        0
370
    25
100
AcDbLine
 10
353.5341182001022
 20
45.74850491753633
 30
0.0
 11
354.1954768696911
 21
45.74850491753633
 31
0.0
  0
SPLINE
  5
1D7
330
70
100
AcDbEntity
  8
0
 62
    18
420
        0
370
    25
100
AcDbSpline
210
0.0
220
0.0
230
1.0
 70
     8
 71
     3
 72
     8
 73
     4
 74
     0
 42
0.0000000001
 43
0.0000000001
 40
0.0
 40
0.0
 40
0.0
 40
0.0
 40
1.0
 40
1.0
 40
1.0
 40
1.0
 10
350.8886835217471
 20
46.01304838537197
 30
0.0
 10
350.8886835217471
 20
45.93999672389553
 30
0.0
 10
350.9479035941881
 20
45.88077665145447
 30
0.0
 10
351.0209552556645
 20
45.88077665145447
 30
0.0
  0
SPLINE
  5
1D8
330
70
100
AcDbEntity
  8
0
 62
    18
420
        0
370
    25
100
AcDbSpline
210
0.0
220
0.0
230
1.0
 70
     8
 71
     3
 72
     8
 73
     4
 74
     0
 42
0.0000000001
 43
0.0000000001
 40
0.0
 40
0.0
 40
0.0
 40
0.0
 40
1.0
 40
1.0
 40
1.0
 40
1.0
 10
351.0209552556645
 20
48.92302653156278
 30
0.0
 10
350.9479035941881
 20
48.92302653156278
 30
0.0
 10
350.8886835217471
 20
48.86380645912171
 30
0.0
 10
350.8886835217471
 20
48.79075479764527
 30
0.0
  0
LINE
  5
1D9
330
70
100
AcDbEntity
  8
0
 62
    18
420
        0
370
    25
100
AcDbLine
 10
353.5341182001022
 20
48.92302653156278
 30
0.0
 11
351.0209552556645
 21
48.92302653156278
 31
0.0
  0
LINE
  5
1DA
330
70
100
AcDbEntity
  8
0
 62
    18
420
        0
370
    25
100
AcDbLine
 10
351.0209552556645
 20
45.88077665145447
 30
0.0
 11
353.5341182001022
 21
45.88077665145447
 31
0.0
  0
LINE
  5
1DB
330
70
100
AcDbEntity
  8
0
 62
    18
420
        0
370
    25
100
AcDbLine
 10
358.0049028065224
 20
78.3270329814807
 30
0.0
 11
358.0049028065224
 21
51.87268619792909
 31
0.0
  0
LINE
  5
1DC
330
70
100
AcDbEntity
  8
0
 62
    18
420
        0
370
    25
100
AcDbLine
 10
362.1582352515401
 20
51.87268619792909
 30
0.0
 11
362.1582352515401
 21
78.3270329814807
 31
0.0
  0
LINE
  5
1DD
330
70
100
AcDbEntity
  8
0
 62
    18
420
        0
370
    25
100
AcDbLine
 10
358.0445843266979
 20
78.56512210253246
 30
0.0
 11
358.0445843266979
 21
78.35348732826393
 31
0.0
  0
LINE
  5
1DE
330
70
100
AcDbEntity
  8
0
 62
    18
420
        0
370
    25
100
AcDbLine
 10
362.1185537313649
 20
78.35348732826393
 30
0.0
 11
362.1185537313649
 21
78.56512210253246
 31
0.0
  0
SPLINE
  5
1DF
330
70
100
AcDbEntity
  8
0
 62
    18
420
        0
370
    25
100
AcDbSpline
210
0.0
220
0.0
230
1.0
 70
     8
 71
     3
 72
     8
 73
     4
 74
     0
 42
0.0000000001
 43
0.0000000001
 40
0.0
 40
0.0
 40
0.0
 40
0.0
 40
1.0
 40
1.0
 40
1.0
 40
1.0
 10
358.0710386734815
 20
78.59157644931602
 30
0.0
 10
358.0564283411862
 20
78.59157644931602
 30
0.0
 10
358.0445843266979
 20
78.57973243482774
 30
0.0
 10
358.0445843266979
 20
78.56512210253246
 30
0.0
  0
SPLINE
  5
1E0
330
70
100
AcDbEntity
  8
0
 62
    18
420
        0
370
    25
100
AcDbSpline
210
0.0
220
0.0
230
1.0
 70
     8
 71
     3
 72
     8
 73
     4
 74
     0
 42
0.0000000001
 43
0.0000000001
 40
0.0
 40
0.0
 40
0.0
 40
0.0
 40
1.0
 40
1.0
 40
1.0
 40
1.0
 10
362.1185537313649
 20
78.56512210253246
 30
0.0
 10
362.1185537313649
 20
78.57973243482774
 30
0.0
 10
362.1067097168763
 20
78.59157644931602
 30
0.0
 10
362.092099384581
 20
78.59157644931602
 30
0.0
  0
SPLINE
  5
1E1
330
70
100
AcDbEntity
  8
0
 62
    18
420
        0
370
    25
100
AcDbSpline
210
0.0
220
0.0
230
1.0
 70
     8
 71
     3
 72
     8
 73
     4
 74
     0
 42
0.0000000001
 43
0.0000000001
 40
0.0
 40
0.0
 40
0.0
 40
0.0
 40
1.0
 40
1.0
 40
1.0
 40
1.0
 10
358.0445843266979
 20
78.35348732826393
 30
0.0
 10
358.0445843266979
 20
78.33887699596866
 30
0.0
 10
358.0564283411862
 20
78.32703298148039
 30
0.0
 10
358.0710386734815
 20
78.32703298148039
 30
0.0
  0
SPLINE
  5
1E2
330
70
100
AcDbEntity
  8
0
 62
    18
420
        0
370
    25
100
AcDbSpline
210
0.0
220
0.0
230
1.0
 70
     8
 71
     3
 72
     8
 73
     4
 74
     0
 42
0.0000000001
 43
0.0000000001
 40
0.0
 40
0.0
 40
0.0
 40
0.0
 40
1.0
 40
1.0
 40
1.0
 40
1.0
 10
362.092099384581
 20
78.32703298148039
 30
0.0
 10
362.1067097168763
 20
78.32703298148039
 30
0.0
 10
362.1185537313649
 20
78.33887699596866
 30
0.0
 10
362.1185537313649
 20
78.35348732826393
 30
0.0
  0
LINE
  5
1E3
330
70
100
AcDbEntity
  8
0
 62
    18
420
        0
370
    25
100
AcDbLine
 10
362.0259635176223
 20
78.59157644931602
 30
0.0
 11
362.0259635176223
 21
79.78202205457577
 31
0.0
  0
LINE
  5
1E4
330
70
100
AcDbEntity
  8
0
 62
    18
420
        0
370
    25
100
AcDbLine
 10
358.1371745404402
 20
79.78202205457577
 30
0.0
 11
358.1371745404402
 21
78.59157644931602
 31
0.0
  0
LINE
  5
1E5
330
70
100
AcDbEntity
  8
0
 62
    18
420
        0
370
    25
100
AcDbLine
 10
359.9144948317775
 20
47.1461728137422
 30
0.0
 11
359.7765643123798
 21
47.418727701764
 31
0.0
  0
LINE
  5
1E6
330
70
100
AcDbEntity
  8
0
 62
    18
420
        0
370
    25
100
AcDbLine
 10
360.2194995484291
 20
47.1293467034865
 30
0.0
 11
359.9144948317775
 21
47.1461728137422
 31
0.0
  0
LINE
  5
1E7
330
70
100
AcDbEntity
  8
0
 62
    18
420
        0
370
    25
100
AcDbLine
 10
360.3865737456827
 20
47.38507548125324
 30
0.0
 11
360.2194995484291
 21
47.1293467034865
 31
0.0
  0
LINE
  5
1E8
330
70
100
AcDbEntity
  8
0
 62
    18
420
        0
370
    25
100
AcDbLine
 10
360.248643226285
 20
47.65763036927505
 30
0.0
 11
360.3865737456827
 21
47.38507548125324
 31
0.0
  0
LINE
  5
1E9
330
70
100
AcDbEntity
  8
0
 62
    18
420
        0
370
    25
100
AcDbLine
 10
359.9436385096337
 20
47.67445647953009
 30
0.0
 11
360.248643226285
 21
47.65763036927505
 31
0.0
  0
LINE
  5
1EA
330
70
100
AcDbEntity
  8
0
 62
    18
420
        0
370
    25
100
AcDbLine
 10
359.7765643123798
 20
47.418727701764
 30
0.0
 11
359.9436385096337
 21
47.67445647953009
 31
0.0
  0
CIRCLE
  5
1EB
330
70
100
AcDbEntity
  8
0
 62
    18
420
        0
370
    25
100
AcDbCircle
 10
360.0815690290313
 20
47.4019015915083
 30
0.0
 40
0.3323278116127875
  0
SPLINE
  5
1EC
330
70
100
AcDbEntity
  8
0
 62
    18
420
        0
370
    25
100
AcDbSpline
210
0.0
220
0.0
230
1.0
 70
     8
 71
     3
 72
    41
 73
    37
 74
     0
 42
0.0000000001
 43
0.0000000001
 40
0.0
 40
0.0
 40
0.0
 40
0.0
 40
1.0
 40
1.0
 40
1.0
 40
2.0
 40
2.0
 40
2.0
 40
3.0
 40
3.0
 40
3.0
 40
4.0
 40
4.0
 40
4.0
 40
5.0
 40
5.0
 40
5.0
 40
6.0
 40
6.0
 40
6.0
 40
7.0
 40
7.0
 40
7.0
 40
8.0
 40
8.0
 40
8.0
 40
9.0
 40
9.0
 40
9.0
 40
10.0
 40
10.0
 40
10.0
 40
11.0
 40
11.0
 40
11.0
 40
12.0
 40
12.0
 40
12.0
 40
12.0
 10
360.0815690290314
 20
46.97307663014718
 30
0.0
 10
360.0534812161736
 20
46.97466270062581
 30
0.0
 10
360.0253934033162
 20
46.97624877110444
 30
0.0
 10
359.9979004309477
 20
46.98127594751824
 30
0.0
 10
359.9702205026406
 20
46.98633730941265
 30
0.0
 10
359.9431435323209
 20
46.99488673633901
 30
0.0
 10
359.9171129030445
 20
47.00587389963142
 30
0.0
 10
359.8653812439461
 20
47.02770910691175
 30
0.0
 10
359.8177821217547
 20
47.05917218415546
 30
0.0
 10
359.7782247357814
 20
47.09876166994889
 30
0.0
 10
359.7387310071376
 20
47.13828744675668
 30
0.0
 10
359.7072531533692
 20
47.18591349847481
 30
0.0
 10
359.6857035731959
 20
47.2375439462943
 30
0.0
 10
359.6748176849189
 20
47.26362534937294
 30
0.0
 10
359.6664653138286
 20
47.290728602448
 30
0.0
 10
359.6609074602605
 20
47.31845679965617
 30
0.0
 10
359.6554142566337
 20
47.34586245754251
 30
0.0
 10
359.6526509359989
 20
47.37387860519806
 30
0.0
 10
359.6526470985764
 20
47.40189563001258
 30
0.0
 10
359.6526432643787
 20
47.42988911209122
 30
0.0
 10
359.6553942777486
 20
47.4578834698542
 30
0.0
 10
359.6608703444496
 20
47.48526753642045
 30
0.0
 10
359.6664212414566
 20
47.51302580553093
 30
0.0
 10
359.6747721762111
 20
47.54015699025782
 30
0.0
 10
359.685657508951
 20
47.56627509844835
 30
0.0
 10
359.7071959400803
 20
47.61795409512393
 30
0.0
 10
359.7386568351317
 20
47.66566677891588
 30
0.0
 10
359.7782130613887
 20
47.70514804166835
 30
0.0
 10
359.8177913462606
 20
47.74465132123165
 30
0.0
 10
359.8654739936133
 20
47.77591399665529
 30
0.0
 10
359.9171836235146
 20
47.79776149894888
 30
0.0
 10
359.9432383956275
 20
47.80876973270711
 30
0.0
 10
359.9703155456254
 20
47.81738762464661
 30
0.0
 10
359.9980096583612
 20
47.82248528938978
 30
0.0
 10
360.0254587201368
 20
47.82753784751924
 30
0.0
 10
360.0535138745841
 20
47.82913220019433
 30
0.0
 10
360.0815690290314
 20
47.83072655287007
 30
0.0
  0
SPLINE
  5
1ED
330
70
100
AcDbEntity
  8
0
 62
    18
420
        0
370
    25
100
AcDbSpline
210
0.0
220
0.0
230
1.0
 70
     8
 71
     3
 72
    41
 73
    37
 74
     0
 42
0.0000000001
 43
0.0000000001
 40
0.0
 40
0.0
 40
0.0
 40
0.0
 40
1.0
 40
1.0
 40
1.0
 40
2.0
 40
2.0
 40
2.0
 40
3.0
 40
3.0
 40
3.0
 40
4.0
 40
4.0
 40
4.0
 40
5.0
 40
5.0
 40
5.0
 40
6.0
 40
6.0
 40
6.0
 40
7.0
 40
7.0
 40
7.0
 40
8.0
 40
8.0
 40
8.0
 40
9.0
 40
9.0
 40
9.0
 40
10.0
 40
10.0
 40
10.0
 40
11.0
 40
11.0
 40
11.0
 40
12.0
 40
12.0
 40
12.0
 40
12.0
 10
360.0815690290314
 20
47.83072655287007
 30
0.0
 10
360.1096568418885
 20
47.82914048239144
 30
0.0
 10
360.1377446547459
 20
47.82755441191215
 30
0.0
 10
360.1652376271145
 20
47.82252723549901
 30
0.0
 10
360.1929175554216
 20
47.81746587360395
 30
0.0
 10
360.2199945257415
 20
47.8089164466776
 30
0.0
 10
360.246025155018
 20
47.79792928338582
 30
0.0
 10
360.2977568141164
 20
47.7760940761055
 30
0.0
 10
360.3453559363077
 20
47.74463099886179
 30
0.0
 10
360.384913322281
 20
47.70504151306836
 30
0.0
 10
360.4244070509248
 20
47.66551573626057
 30
0.0
 10
360.4558849046936
 20
47.61788968454179
 30
0.0
 10
360.4774344848666
 20
47.5662592367223
 30
0.0
 10
360.4883203731436
 20
47.54017783364431
 30
0.0
 10
360.4966727442342
 20
47.51307458056861
 30
0.0
 10
360.502230597802
 20
47.48534638336043
 30
0.0
 10
360.5077238014287
 20
47.45794072547409
 30
0.0
 10
360.5104871220636
 20
47.42992457781854
 30
0.0
 10
360.5104909594861
 20
47.40190755300403
 30
0.0
 10
360.5104947936837
 20
47.37391407092602
 30
0.0
 10
360.5077437803138
 20
47.3459197131624
 30
0.0
 10
360.5022677136132
 20
47.31853564659616
 30
0.0
 10
360.4967168166059
 20
47.29077737748568
 30
0.0
 10
360.4883658818516
 20
47.26364619275879
 30
0.0
 10
360.4774805491115
 20
47.2375280845689
 30
0.0
 10
360.4559421179822
 20
47.18584908789266
 30
0.0
 10
360.4244812229307
 20
47.13813640410072
 30
0.0
 10
360.3849249966738
 20
47.09865514134889
 30
0.0
 10
360.3453467118019
 20
47.0591518617856
 30
0.0
 10
360.2976640644491
 20
47.02788918636132
 30
0.0
 10
360.2459544345478
 20
47.00604168406772
 30
0.0
 10
360.2198996624346
 20
46.99503345030949
 30
0.0
 10
360.1928225124364
 20
46.98641555837062
 30
0.0
 10
360.1651283997004
 20
46.98131789362747
 30
0.0
 10
360.1376793379249
 20
46.97626533549736
 30
0.0
 10
360.1096241834783
 20
46.97467098282227
 30
0.0
 10
360.0815690290314
 20
46.97307663014718
 30
0.0
  0
LINE
  5
1EE
330
70
100
AcDbEntity
  8
0
 62
    18
420
        0
370
    25
100
AcDbLine
 10
361.2852418076828
 20
47.5738548456013
 30
0.0
 11
361.7349657030033
 21
47.5738548456013
 31
0.0
  0
LINE
  5
1EF
330
70
100
AcDbEntity
  8
0
 62
    18
420
        0
370
    25
100
AcDbLine
 10
361.2852418076828
 20
47.22994833741529
 30
0.0
 11
361.2852418076828
 21
47.5738548456013
 31
0.0
  0
LINE
  5
1F0
330
70
100
AcDbEntity
  8
0
 62
    18
420
        0
370
    25
100
AcDbLine
 10
361.7349657030033
 20
47.22994833741529
 30
0.0
 11
361.2852418076828
 21
47.22994833741529
 31
0.0
  0
LINE
  5
1F1
330
70
100
AcDbEntity
  8
0
 62
    18
420
        0
370
    25
100
AcDbLine
 10
360.0815690290314
 20
48.98916239852153
 30
0.0
 11
361.7349657030033
 21
48.98916239852153
 31
0.0
  0
LINE
  5
1F2
330
70
100
AcDbEntity
  8
0
 62
    18
420
        0
370
    25
100
AcDbLine
 10
358.4281723550594
 20
48.98916239852153
 30
0.0
 11
360.0815690290314
 21
48.98916239852153
 31
0.0
  0
SPLINE
  5
1F3
330
70
100
AcDbEntity
  8
0
 62
    18
420
        0
370
    25
100
AcDbSpline
210
0.0
220
0.0
230
1.0
 70
     8
 71
     3
 72
    56
 73
    52
 74
     0
 42
0.0000000001
 43
0.0000000001
 40
0.0
 40
0.0
 40
0.0
 40
0.0
 40
1.0
 40
1.0
 40
1.0
 40
2.0
 40
2.0
 40
2.0
 40
3.0
 40
3.0
 40
3.0
 40
4.0
 40
4.0
 40
4.0
 40
5.0
 40
5.0
 40
5.0
 40
6.0
 40
6.0
 40
6.0
 40
7.0
 40
7.0
 40
7.0
 40
8.0
 40
8.0
 40
8.0
 40
9.0
 40
9.0
 40
9.0
 40
10.0
 40
10.0
 40
10.0
 40
11.0
 40
11.0
 40
11.0
 40
12.0
 40
12.0
 40
12.0
 40
13.0
 40
13.0
 40
13.0
 40
14.0
 40
14.0
 40
14.0
 40
15.0
 40
15.0
 40
15.0
 40
16.0
 40
16.0
 40
16.0
 40
17.0
 40
17.0
 40
17.0
 40
17.0
 10
358.4281788233504
 20
48.27489979540952
 30
0.0
 10
358.4281766673777
 20
48.27490387822735
 30
0.0
 10
358.4281745114053
 20
48.27490796104584
 30
0.0
 10
358.4281723597226
 20
48.27491203578789
 30
0.0
 10
358.4251953328397
 20
48.28054977043698
 30
0.0
 10
358.4304303163052
 20
48.27072668071528
 30
0.0
 10
358.4370873854658
 20
48.25791285606388
 30
0.0
 10
358.4438760748167
 20
48.24484568297901
 30
0.0
 10
358.4521436392851
 20
48.22866834326625
 30
0.0
 10
358.4630245628951
 20
48.20681803108358
 30
0.0
 10
358.4737874270983
 20
48.18520479757117
 30
0.0
 10
358.4871072475419
 20
48.15804102868447
 30
0.0
 10
358.5015522264841
 20
48.12657874721622
 30
0.0
 10
358.5161912388553
 20
48.09469384593125
 30
0.0
 10
358.5319858403198
 20
48.05839417618066
 30
0.0
 10
358.548083641287
 20
48.0183273522793
 30
0.0
 10
358.5642190289622
 20
47.97816697646939
 30
0.0
 10
358.5806590336728
 20
47.93422183413658
 30
0.0
 10
358.5960901391883
 20
47.88687465974835
 30
0.0
 10
358.6112277463573
 20
47.84042802468785
 30
0.0
 10
358.6253944677129
 20
47.79070753959756
 30
0.0
 10
358.6375662282277
 20
47.73849003459258
 30
0.0
 10
358.6499325281807
 20
47.6854379449714
 30
0.0
 10
358.6602395873522
 20
47.62980837857211
 30
0.0
 10
358.667159953187
 20
47.57255641940838
 30
0.0
 10
358.6739118880543
 20
47.51669788410434
 30
0.0
 10
358.6774399771657
 20
47.45929496803939
 30
0.0
 10
358.6774311061542
 20
47.40189571334553
 30
0.0
 10
358.6774222550973
 20
47.34462557275031
 30
0.0
 10
358.6738923381235
 20
47.28735907707172
 30
0.0
 10
358.6671653888704
 20
47.23162277215536
 30
0.0
 10
358.6602422711972
 20
47.17426110892918
 30
0.0
 10
358.6499329415186
 20
47.1185201832728
 30
0.0
 10
358.6375537081459
 20
47.06535550057025
 30
0.0
 10
358.6254100741038
 20
47.01320263849189
 30
0.0
 10
358.6112745746929
 20
46.96352889132847
 30
0.0
 10
358.5961728598427
 20
46.9171463355948
 30
0.0
 10
358.5807205845138
 20
46.86968708816517
 30
0.0
 10
358.5642567150164
 20
46.82567360440531
 30
0.0
 10
358.5480528516107
 20
46.78540436159149
 30
0.0
 10
358.531991491083
 20
46.74548926166749
 30
0.0
 10
358.5161855835733
 20
46.70925283574259
 30
0.0
 10
358.5016931981491
 20
46.67765371703902
 30
0.0
 10
358.4872841652434
 20
46.64623633971493
 30
0.0
 10
358.4741735885082
 20
46.6194030803454
 30
0.0
 10
358.4630307242823
 20
46.59702440006293
 30
0.0
 10
358.4518370006452
 20
46.57454357669737
 30
0.0
 10
358.4426289929834
 20
46.55655808931993
 30
0.0
 10
358.4371479325583
 20
46.5459503063521
 30
0.0
 10
358.4317346748909
 20
46.53547374560926
 30
0.0
 10
358.4299567273309
 20
46.53219348835703
 30
0.0
 10
358.4281787797707
 20
46.52891323110416
 30
0.0
  0
LINE
  5
1F4
330
70
100
AcDbEntity
  8
0
 62
    18
420
        0
370
    25
100
AcDbLine
 10
360.0815690290314
 20
45.81464078449508
 30
0.0
 11
358.4281723550594
 21
45.81464078449508
 31
0.0
  0
LINE
  5
1F5
330
70
100
AcDbEntity
  8
0
 62
    18
420
        0
370
    25
100
AcDbLine
 10
361.7349657030033
 20
45.81464078449508
 30
0.0
 11
360.0815690290314
 21
45.81464078449508
 31
0.0
  0
LINE
  5
1F6
330
70
100
AcDbEntity
  8
0
 62
    18
420
        0
370
    25
100
AcDbLine
 10
360.0815690290314
 20
49.12143413243967
 30
0.0
 11
358.5604440889769
 21
49.12143413243967
 31
0.0
  0
LINE
  5
1F7
330
70
100
AcDbEntity
  8
0
 62
    18
420
        0
370
    25
100
AcDbLine
 10
361.6026939690855
 20
49.12143413243967
 30
0.0
 11
360.0815690290314
 21
49.12143413243967
 31
0.0
  0
LINE
  5
1F8
330
70
100
AcDbEntity
  8
0
 62
    18
420
        0
370
    25
100
AcDbLine
 10
360.0815690290314
 20
45.68236905057758
 30
0.0
 11
361.6026939690855
 21
45.68236905057758
 31
0.0
  0
LINE
  5
1F9
330
70
100
AcDbEntity
  8
0
 62
    18
420
        0
370
    25
100
AcDbLine
 10
358.5604440889769
 20
45.68236905057758
 30
0.0
 11
360.0815690290314
 21
45.68236905057758
 31
0.0
  0
LINE
  5
1FA
330
70
100
AcDbEntity
  8
0
 62
    18
420
        0
370
    25
100
AcDbLine
 10
356.8409115480462
 20
47.4019015915083
 30
0.0
 11
356.8409115480462
 21
46.34372772016637
 31
0.0
  0
LINE
  5
1FB
330
70
100
AcDbEntity
  8
0
 62
    18
420
        0
370
    25
100
AcDbLine
 10
356.8409115480462
 20
48.46007546285024
 30
0.0
 11
356.8409115480462
 21
47.4019015915083
 31
0.0
  0
LINE
  5
1FC
330
70
100
AcDbEntity
  8
0
 62
    18
420
        0
370
    25
100
AcDbLine
 10
356.973183281964
 20
47.4019015915083
 30
0.0
 11
356.973183281964
 21
48.32780372893275
 31
0.0
  0
LINE
  5
1FD
330
70
100
AcDbEntity
  8
0
 62
    18
420
        0
370
    25
100
AcDbLine
 10
356.973183281964
 20
46.47599945408386
 30
0.0
 11
356.973183281964
 21
47.4019015915083
 31
0.0
  0
LINE
  5
1FE
330
70
100
AcDbEntity
  8
0
 62
    18
420
        0
370
    25
100
AcDbLine
 10
354.1954768696911
 20
53.00360952292558
 30
0.0
 11
354.1954768696911
 21
56.29056211078211
 31
0.0
  0
LINE
  5
1FF
330
70
100
AcDbEntity
  8
0
 62
    18
420
        0
370
    25
100
AcDbLine
 10
354.1954768696911
 20
53.00360952292558
 30
0.0
 11
353.5341182001022
 21
53.00360952292558
 31
0.0
  0
LINE
  5
200
330
70
100
AcDbEntity
  8
0
 62
    18
420
        0
370
    25
100
AcDbLine
 10
353.5341182001022
 20
53.00360952292558
 30
0.0
 11
353.5341182001022
 21
56.29056211078211
 31
0.0
  0
LINE
  5
201
330
70
100
AcDbEntity
  8
0
 62
    18
420
        0
370
    25
100
AcDbLine
 10
354.1954768696911
 20
49.03545750539285
 30
0.0
 11
353.5341182001022
 21
49.03545750539285
 31
0.0
  0
LINE
  5
202
330
70
100
AcDbEntity
  8
0
 62
    18
420
        0
370
    25
100
AcDbLine
 10
354.1954768696911
 20
49.03545750539285
 30
0.0
 11
354.1954768696911
 21
53.00360952292558
 31
0.0
  0
LINE
  5
203
330
70
100
AcDbEntity
  8
0
 62
    18
420
        0
370
    25
100
AcDbLine
 10
353.5341182001022
 20
49.03545750539285
 30
0.0
 11
353.5341182001022
 21
53.00360952292558
 31
0.0
  0
LINE
  5
204
330
70
100
AcDbEntity
  8
0
 62
    18
420
        0
370
    25
100
AcDbLine
 10
354.1954768696911
 20
45.74850491753633
 30
0.0
 11
354.1954768696911
 21
49.03545750539285
 31
0.0
  0
LINE
  5
205
330
70
100
AcDbEntity
  8
0
 62
    18
420
        0
370
    25
100
AcDbLine
 10
353.5341182001022
 20
45.74850491753633
 30
0.0
 11
353.5341182001022
 21
49.03545750539285
 31
0.0
  0
LINE
  5
206
330
70
100
AcDbEntity
  8
0
 62
    18
420
        0
370
    25
100
AcDbLine
 10
350.8886835217471
 20
46.01304838537197
 30
0.0
 11
350.8886835217471
 21
48.79075479394717
 31
0.0
  0
LINE
  5
207
330
70
100
AcDbEntity
  8
0
 62
    18
420
        0
370
    25
100
AcDbLine
 10
362.1582352515401
 20
51.87268619792909
 30
0.0
 11
358.0049028065224
 21
51.87268619792909
 31
0.0
  0
LINE
  5
208
330
70
100
AcDbEntity
  8
0
 62
    18
420
        0
370
    25
100
AcDbLine
 10
362.1582352515401
 20
78.3270329814807
 30
0.0
 11
358.0049028065224
 21
78.3270329814807
 31
0.0
  0
LINE
  5
209
330
70
100
AcDbEntity
  8
0
 62
    18
420
        0
370
    25
100
AcDbLine
 10
357.8328991270348
 20
78.3270329814807
 30
0.0
 11
357.8328991270348
 21
51.87268619792845
 31
0.0
  0
LINE
  5
20A
330
70
100
AcDbEntity
  8
0
 62
    18
420
        0
370
    25
100
AcDbLine
 10
358.0049028065224
 20
51.87268619792909
 30
0.0
 11
357.8328991270348
 21
51.87268619792845
 31
0.0
  0
LINE
  5
20B
330
70
100
AcDbEntity
  8
0
 62
    18
420
        0
370
    25
100
AcDbLine
 10
358.0049028065224
 20
78.3270329814807
 30
0.0
 11
357.8328991270348
 21
78.3270329814807
 31
0.0
  0
LINE
  5
20C
330
70
100
AcDbEntity
  8
0
 62
    18
420
        0
370
    25
100
AcDbLine
 10
357.1715908828406
 20
51.87268619792845
 30
0.0
 11
357.1715908828406
 21
78.32703298148039
 31
0.0
  0
LINE
  5
20D
330
70
100
AcDbEntity
  8
0
 62
    18
420
        0
370
    25
100
AcDbLine
 10
357.8328991270348
 20
51.87268619792845
 30
0.0
 11
357.1715908828406
 21
51.87268619792845
 31
0.0
  0
LINE
  5
20E
330
70
100
AcDbEntity
  8
0
 62
    18
420
        0
370
    25
100
AcDbLine
 10
357.1715908828406
 20
78.32703298148039
 30
0.0
 11
357.8328991270348
 21
78.3270329814807
 31
0.0
  0
LINE
  5
20F
330
70
100
AcDbEntity
  8
0
 62
    18
420
        0
370
    25
100
AcDbLine
 10
358.0710386734812
 20
78.59157644931602
 30
0.0
 11
362.092099384581
 21
78.59157644931602
 31
0.0
  0
LINE
  5
210
330
70
100
AcDbEntity
  8
0
 62
    18
420
        0
370
    25
100
AcDbLine
 10
362.0259635176223
 20
79.78202205457577
 30
0.0
 11
358.1371745404402
 21
79.78202205457577
 31
0.0
  0
LINE
  5
211
330
70
100
AcDbEntity
  8
0
 62
    18
420
        0
370
    25
100
AcDbLine
 10
361.1265157269817
 20
51.87268619792845
 30
0.0
 11
361.1265157269817
 21
49.22725151957329
 31
0.0
  0
LINE
  5
212
330
70
100
AcDbEntity
  8
0
 62
    18
420
        0
370
    25
100
AcDbLine
 10
359.0366223310811
 20
49.22725151957329
 30
0.0
 11
361.1265157269817
 21
49.22725151957329
 31
0.0
  0
LINE
  5
213
330
70
100
AcDbEntity
  8
0
 62
    18
420
        0
370
    25
100
AcDbLine
 10
359.0366223310811
 20
49.22725151957329
 30
0.0
 11
359.0366223310811
 21
51.87268619792845
 31
0.0
  0
LINE
  5
214
330
70
100
AcDbEntity
  8
0
 62
    18
420
        0
370
    25
100
AcDbLine
 10
361.1265157269817
 20
49.20079717279005
 30
0.0
 11
359.0366223310811
 21
49.20079717279005
 31
0.0
  0
LINE
  5
215
330
70
100
AcDbEntity
  8
0
 62
    18
420
        0
370
    25
100
AcDbLine
 10
359.0366223310811
 20
49.20079717279005
 30
0.0
 11
359.0366223310811
 21
49.22725151957329
 31
0.0
  0
LINE
  5
216
330
70
100
AcDbEntity
  8
0
 62
    18
420
        0
370
    25
100
AcDbLine
 10
361.1265157269817
 20
49.22725151957329
 30
0.0
 11
361.1265157269817
 21
49.20079717279005
 31
0.0
  0
LINE
  5
217
330
70
100
AcDbEntity
  8
0
 62
    18
420
        0
370
    25
100
AcDbLine
 10
361.1265157269817
 20
49.12143413243967
 30
0.0
 11
361.1265157269817
 21
49.20079717279005
 31
0.0
  0
LINE
  5
218
330
70
100
AcDbEntity
  8
0
 62
    18
420
        0
370
    25
100
AcDbLine
 10
359.0366223310811
 20
49.12143413243967
 30
0.0
 11
359.0366223310811
 21
49.20079717279005
 31
0.0
  0
LINE
  5
219
330
70
100
AcDbEntity
  8
0
 62
    18
420
        0
370
    25
100
AcDbLine
 10
351.0209552556645
 20
48.92302653156278
 30
0.0
 11
351.0209552556645
 21
45.88077665145447
 31
0.0
  0
LINE
  5
21A
330
70
100
AcDbEntity
  8
0
 62
    18
420
        0
370
    25
100
AcDbLine
 10
358.0445843266979
 20
78.56512210253246
 30
0.0
 11
362.1185537313649
 21
78.56512210253246
 31
0.0
  0
LINE
  5
21B
330
70
100
AcDbEntity
  8
0
 62
    18
420
        0
370
    25
100
AcDbLine
 10
358.0445843266979
 20
78.35348732826393
 30
0.0
 11
362.1185537313649
 21
78.35348732826393
 31
0.0
  0
INSERT
  5
21D
330
70
100
AcDbEntity
  8
0
100
AcDbBlockReference
  2
Block_9
 10
0.0
 20
0.0
 30
0.0
  0
ENDSEC
  0
SECTION
  2
OBJECTS
  0
DICTIONARY
  5
C
330
0
100
AcDbDictionary
281
     1
  3
ACAD_COLOR
350
63
  3
ACAD_DETAILVIEWSTYLE
350
6A
  3
ACAD_GROUP
350
D
  3
ACAD_LAYOUT
350
62
  3
ACAD_MATERIAL
350
10
  3
ACAD_MLEADERSTYLE
350
66
  3
ACAD_MLINESTYLE
350
5F
  3
ACAD_PLOTSETTINGS
350
61
  3
ACAD_PLOTSTYLENAME
350
E
  3
ACAD_SCALELIST
350
42
  3
ACAD_SECTIONVIEWSTYLE
350
68
  3
ACAD_TABLESTYLE
350
64
  3
ACAD_VISUALSTYLE
350
29
  3
ACDB_RECOMPOSE_DATA
350
22F
  3
AcDbVariableDictionary
350
227
  0
DICTIONARY
  5
63
102
{ACAD_REACTORS
330
C
102
}
330
C
100
AcDbDictionary
281
     1
  0
DICTIONARY
  5
6A
102
{ACAD_REACTORS
330
C
102
}
330
C
100
AcDbDictionary
281
     1
  3
Imperial24
350
6B
  0
DICTIONARY
  5
D
102
{ACAD_REACTORS
330
C
102
}
330
C
100
AcDbDictionary
281
     1
  0
DICTIONARY
  5
62
102
{ACAD_REACTORS
330
C
102
}
330
C
100
AcDbDictionary
281
     1
  3
Layout1
350
6F
  3
Layout2
350
77
  3
Model
350
73
  0
DICTIONARY
  5
10
102
{ACAD_REACTORS
330
C
102
}
330
C
100
AcDbDictionary
281
     1
  3
ByBlock
350
19
  3
ByLayer
350
11
  3
Global
350
21
  0
DICTIONARY
  5
66
102
{ACAD_REACTORS
330
C
102
}
330
C
100
AcDbDictionary
281
     1
  3
Standard
350
67
  0
DICTIONARY
  5
5F
102
{ACAD_REACTORS
330
C
102
}
330
C
100
AcDbDictionary
281
     1
  3
Standard
350
60
  0
DICTIONARY
  5
61
102
{ACAD_REACTORS
330
C
102
}
330
C
100
AcDbDictionary
281
     1
  0
ACDBDICTIONARYWDFLT
  5
E
102
{ACAD_REACTORS
330
C
102
}
330
C
100
AcDbDictionary
281
     1
  3
Normal
350
F
100
AcDbDictionaryWithDefault
340
F
  0
DICTIONARY
  5
42
102
{ACAD_REACTORS
330
C
102
}
330
C
100
AcDbDictionary
281
     1
  3
A0
350
43
  3
A1
350
44
  3
A2
350
45
  3
A3
350
46
  3
A4
350
47
  3
A5
350
48
  3
A6
350
49
  3
A7
350
4A
  3
A8
350
4B
  3
A9
350
4C
  3
B0
350
4D
  3
B1
350
4E
  3
B2
350
4F
  3
B3
350
50
  3
B4
350
51
  3
B5
350
52
  3
B6
350
53
  0
DICTIONARY
  5
68
102
{ACAD_REACTORS
330
C
102
}
330
C
100
AcDbDictionary
281
     1
  3
Imperial24
350
69
  0
DICTIONARY
  5
64
102
{ACAD_REACTORS
330
C
102
}
330
C
100
AcDbDictionary
281
     1
  3
Standard
350
65
  0
DICTIONARY
  5
29
102
{ACAD_REACTORS
330
C
102
}
330
C
100
AcDbDictionary
281
     1
  3
2dWireframe
350
2F
  3
Basic
350
2E
  3
Brighten
350
35
  3
ColorChange
350
39
  3
Conceptual
350
32
  3
Dim
350
34
  3
EdgeColorOff
350
41
  3
Facepattern
350
38
  3
Flat
350
2A
  3
FlatWithEdges
350
2B
  3
Gouraud
350
2C
  3
GouraudWithEdges
350
2D
  3
Hidden
350
31
  3
JitterOff
350
3F
  3
Linepattern
350
37
  3
OverhangOff
350
40
  3
Realistic
350
33
  3
Shaded
350
3E
  3
Shaded with edges
350
3D
  3
Shades of Gray
350
3A
  3
Sketchy
350
3B
  3
Thicken
350
36
  3
Wireframe
350
30
  3
X-Ray
350
3C
  0
XRECORD
  5
22F
102
{ACAD_REACTORS
330
C
102
}
330
C
100
AcDbXrecord
280
     1
 90
        1
330
65
  0
DICTIONARY
  5
227
102
{ACAD_REACTORS
330
C
102
}
330
C
100
AcDbDictionary
281
     1
  3
CANNOSCALE
350
22C
  3
CMLEADERSTYLE
350
229
  3
CTABLESTYLE
350
228
  3
CVIEWDETAILSTYLE
350
22A
  3
CVIEWSECTIONSTYLE
350
22B
  0
ACDBDETAILVIEWSTYLE
  5
6B
102
{ACAD_REACTORS
330
6A
102
}
330
6A
100
AcDbModelDocViewStyle
 70
     0
  3
Imperial24
290
     1
300
Imperial24
 90
        0
100
AcDbDetailViewStyle
 70
     0
 71
     0
 90
        3
 71
     1
340
55
 62
   256
 40
0.24
340
0
 62
   256
 40
0.24
300

 40
0.36
280
     3
 71
     2
340
5D
 90
       25
 62
   256
 71
     3
340
55
 62
   256
 40
0.24
 90
        1
 40
0.75
 90
        1
300
%<\AcVar ViewType \f "%tc1">% %<\AcVar ViewDetailId>%\PSCALE %<\AcVar ViewScale \f "%sn">%
 71
     4
340
5D
 90
       25
 62
   256
340
5D
 90
       25
 62
   256
280
     0
  0
LAYOUT
  5
6F
102
{ACAD_REACTORS
330
62
102
}
330
62
100
AcDbPlotSettings
  1

  2

  4

  6

 40
0.0
 41
0.0
 42
0.0
 43
0.0
 44
0.0
 45
0.0
 46
0.0
 47
0.0
 48
0.0
 49
0.0
140
0.0
141
0.0
142
1.0
143
1.0
 70
   688
 72
     0
 73
     0
 74
     5
  7

 75
    16
147
1.0
 76
     0
 77
     2
 78
   300
148
0.0
149
0.0
100
AcDbLayout
  1
Layout1
 70
     1
 71
     1
 10
0.0
 20
0.0
 11
12.0
 21
9.0
 12
0.0
 22
0.0
 32
0.0
 14
0.0
 24
0.0
 34
0.0
 15
0.0
 25
0.0
 35
0.0
146
0.0
 13
0.0
 23
0.0
 33
0.0
 16
1.0
 26
0.0
 36
0.0
 17
0.0
 27
1.0
 37
0.0
 76
     0
330
6C
  0
LAYOUT
  5
77
102
{ACAD_REACTORS
330
62
102
}
330
62
100
AcDbPlotSettings
  1

  2

  4

  6

 40
0.0
 41
0.0
 42
0.0
 43
0.0
 44
0.0
 45
0.0
 46
0.0
 47
0.0
 48
0.0
 49
0.0
140
0.0
141
0.0
142
1.0
143
1.0
 70
   688
 72
     0
 73
     0
 74
     5
  7

 75
    16
147
1.0
 76
     0
 77
     2
 78
   300
148
0.0
149
0.0
100
AcDbLayout
  1
Layout2
 70
     1
 71
     2
 10
0.0
 20
0.0
 11
12.0
 21
9.0
 12
0.0
 22
0.0
 32
0.0
 14
0.0
 24
0.0
 34
0.0
 15
0.0
 25
0.0
 35
0.0
146
0.0
 13
0.0
 23
0.0
 33
0.0
 16
1.0
 26
0.0
 36
0.0
 17
0.0
 27
1.0
 37
0.0
 76
     0
330
74
  0
LAYOUT
  5
73
102
{ACAD_REACTORS
330
62
102
}
330
62
100
AcDbPlotSettings
  1

  2

  4

  6

 40
0.0
 41
0.0
 42
0.0
 43
0.0
 44
0.0
 45
0.0
 46
0.0
 47
0.0
 48
0.0
 49
0.0
140
0.0
141
0.0
142
1.0
143
1.0
 70
  1712
 72
     0
 73
     0
 74
     0
  7

 75
     0
147
1.0
 76
     0
 77
     2
 78
   300
148
0.0
149
0.0
100
AcDbLayout
  1
Model
 70
     1
 71
     0
 10
0.0
 20
0.0
 11
12.0
 21
9.0
 12
0.0
 22
0.0
 32
0.0
 14
0.0
 24
0.0
 34
0.0
 15
0.0
 25
0.0
 35
0.0
146
0.0
 13
0.0
 23
0.0
 33
0.0
 16
1.0
 26
0.0
 36
0.0
 17
0.0
 27
1.0
 37
0.0
 76
     0
330
70
  0
MATERIAL
  5
19
102
{ACAD_XDICTIONARY
360
1A
102
}
102
{ACAD_REACTORS
330
10
102
}
330
10
100
AcDbMaterial
  1
ByBlock
 72
     0
 43
0.0208333333333333
 43
0.0
 43
0.0
 43
0.0
 43
0.0
 43
0.0208333333333333
 43
0.0
 43
0.0
 43
0.0
 43
0.0
 43
1.0
 43
0.0
 43
0.0
 43
0.0
 43
0.0
 43
1.0
 77
     0
 47
0.0208333333333333
 47
0.0
 47
0.0
 47
0.0
 47
0.0
 47
0.0208333333333333
 47
0.0
 47
0.0
 47
0.0
 47
0.0
 47
1.0
 47
0.0
 47
0.0
 47
0.0
 47
0.0
 47
1.0
171
     0
 49
0.0208333333333333
 49
0.0
 49
0.0
 49
0.0
 49
0.0
 49
0.0208333333333333
 49
0.0
 49
0.0
 49
0.0
 49
0.0
 49
1.0
 49
0.0
 49
0.0
 49
0.0
 49
0.0
 49
1.0
175
     0
142
0.0208333333333333
142
0.0
142
0.0
142
0.0
142
0.0
142
0.0208333333333333
142
0.0
142
0.0
142
0.0
142
0.0
142
1.0
142
0.0
142
0.0
142
0.0
142
0.0
142
1.0
179
     0
144
0.0208333333333333
144
0.0
144
0.0
144
0.0
144
0.0
144
0.0208333333333333
144
0.0
144
0.0
144
0.0
144
0.0
144
1.0
144
0.0
144
0.0
144
0.0
144
0.0
144
1.0
147
0.0208333333333333
147
0.0
147
0.0
147
0.0
147
0.0
147
0.0208333333333333
147
0.0
147
0.0
147
0.0
147
0.0
147
1.0
147
0.0
147
0.0
147
0.0
147
0.0
147
1.0
  0
MATERIAL
  5
11
102
{ACAD_XDICTIONARY
360
12
102
}
102
{ACAD_REACTORS
330
10
102
}
330
10
100
AcDbMaterial
  1
ByLayer
 72
     0
 43
0.0208333333333333
 43
0.0
 43
0.0
 43
0.0
 43
0.0
 43
0.0208333333333333
 43
0.0
 43
0.0
 43
0.0
 43
0.0
 43
1.0
 43
0.0
 43
0.0
 43
0.0
 43
0.0
 43
1.0
 77
     0
 47
0.0208333333333333
 47
0.0
 47
0.0
 47
0.0
 47
0.0
 47
0.0208333333333333
 47
0.0
 47
0.0
 47
0.0
 47
0.0
 47
1.0
 47
0.0
 47
0.0
 47
0.0
 47
0.0
 47
1.0
171
     0
 49
0.0208333333333333
 49
0.0
 49
0.0
 49
0.0
 49
0.0
 49
0.0208333333333333
 49
0.0
 49
0.0
 49
0.0
 49
0.0
 49
1.0
 49
0.0
 49
0.0
 49
0.0
 49
0.0
 49
1.0
175
     0
142
0.0208333333333333
142
0.0
142
0.0
142
0.0
142
0.0
142
0.0208333333333333
142
0.0
142
0.0
142
0.0
142
0.0
142
1.0
142
0.0
142
0.0
142
0.0
142
0.0
142
1.0
179
     0
144
0.0208333333333333
144
0.0
144
0.0
144
0.0
144
0.0
144
0.0208333333333333
144
0.0
144
0.0
144
0.0
144
0.0
144
1.0
144
0.0
144
0.0
144
0.0
144
0.0
144
1.0
147
0.0208333333333333
147
0.0
147
0.0
147
0.0
147
0.0
147
0.0208333333333333
147
0.0
147
0.0
147
0.0
147
0.0
147
1.0
147
0.0
147
0.0
147
0.0
147
0.0
147
1.0
  0
MATERIAL
  5
21
102
{ACAD_XDICTIONARY
360
22
102
}
102
{ACAD_REACTORS
330
10
102
}
330
10
100
AcDbMaterial
  1
Global
 72
     0
 43
0.0208333333333333
 43
0.0
 43
0.0
 43
0.0
 43
0.0
 43
0.0208333333333333
 43
0.0
 43
0.0
 43
0.0
 43
0.0
 43
1.0
 43
0.0
 43
0.0
 43
0.0
 43
0.0
 43
1.0
 77
     0
 47
0.0208333333333333
 47
0.0
 47
0.0
 47
0.0
 47
0.0
 47
0.0208333333333333
 47
0.0
 47
0.0
 47
0.0
 47
0.0
 47
1.0
 47
0.0
 47
0.0
 47
0.0
 47
0.0
 47
1.0
171
     0
 49
0.0208333333333333
 49
0.0
 49
0.0
 49
0.0
 49
0.0
 49
0.0208333333333333
 49
0.0
 49
0.0
 49
0.0
 49
0.0
 49
1.0
 49
0.0
 49
0.0
 49
0.0
 49
0.0
 49
1.0
175
     0
142
0.0208333333333333
142
0.0
142
0.0
142
0.0
142
0.0
142
0.0208333333333333
142
0.0
142
0.0
142
0.0
142
0.0
142
1.0
142
0.0
142
0.0
142
0.0
142
0.0
142
1.0
179
     0
144
0.0208333333333333
144
0.0
144
0.0
144
0.0
144
0.0
144
0.0208333333333333
144
0.0
144
0.0
144
0.0
144
0.0
144
1.0
144
0.0
144
0.0
144
0.0
144
0.0
144
1.0
147
0.0208333333333333
147
0.0
147
0.0
147
0.0
147
0.0
147
0.0208333333333333
147
0.0
147
0.0
147
0.0
147
0.0
147
1.0
147
0.0
147
0.0
147
0.0
147
0.0
147
1.0
  0
MLEADERSTYLE
  5
67
102
{ACAD_REACTORS
330
66
102
}
330
66
100
AcDbMLeaderStyle
179
     2
170
     2
171
     1
172
     0
 90
        2
 40
0.0
 41
0.0
173
     1
 91
-1056964608
340
5B
 92
       -2
290
     1
 42
0.09
291
     1
 43
0.36
  3
Standard
 44
0.18
300

342
55
174
     1
178
     6
175
     1
176
     0
 93
-1056964608
 45
0.18
292
     0
297
     0
 46
0.18
 94
-1056964608
 47
1.0
 49
1.0
140
1.0
293
     1
141
0.0
294
     1
177
     0
142
1.0
295
     1
296
     0
143
0.125
271
     0
272
     9
273
     9
298
     1
  0
MLINESTYLE
  5
60
102
{ACAD_REACTORS
330
5F
102
}
330
5F
100
AcDbMlineStyle
  2
STANDARD
 70
     0
  3

 62
   256
 51
90.0
 52
90.0
 71
     2
 49
0.5
 62
   256
  6
BYLAYER
 49
-0.5
 62
   256
  6
BYLAYER
  0
ACDBPLACEHOLDER
  5
F
102
{ACAD_REACTORS
330
E
102
}
330
E
  0
SCALE
  5
43
102
{ACAD_REACTORS
330
42
102
}
330
42
100
AcDbScale
 70
     0
300
1:1
140
1.0
141
1.0
290
     1
  0
SCALE
  5
44
102
{ACAD_REACTORS
330
42
102
}
330
42
100
AcDbScale
 70
     0
300
1/128" = 1'-0"
140
0.0078125
141
12.0
290
     0
  0
SCALE
  5
45
102
{ACAD_REACTORS
330
42
102
}
330
42
100
AcDbScale
 70
     0
300
1/64" = 1'-0"
140
0.015625
141
12.0
290
     0
  0
SCALE
  5
46
102
{ACAD_REACTORS
330
42
102
}
330
42
100
AcDbScale
 70
     0
300
1/32" = 1'-0"
140
0.03125
141
12.0
290
     0
  0
SCALE
  5
47
102
{ACAD_REACTORS
330
42
102
}
330
42
100
AcDbScale
 70
     0
300
1/16" = 1'-0"
140
0.0625
141
12.0
290
     0
  0
SCALE
  5
48
102
{ACAD_REACTORS
330
42
102
}
330
42
100
AcDbScale
 70
     0
300
3/32" = 1'-0"
140
0.09375
141
12.0
290
     0
  0
SCALE
  5
49
102
{ACAD_REACTORS
330
42
102
}
330
42
100
AcDbScale
 70
     0
300
1/8" = 1'-0"
140
0.125
141
12.0
290
     0
  0
SCALE
  5
4A
102
{ACAD_REACTORS
330
42
102
}
330
42
100
AcDbScale
 70
     0
300
3/16" = 1'-0"
140
0.1875
141
12.0
290
     0
  0
SCALE
  5
4B
102
{ACAD_REACTORS
330
42
102
}
330
42
100
AcDbScale
 70
     0
300
1/4" = 1'-0"
140
0.25
141
12.0
290
     0
  0
SCALE
  5
4C
102
{ACAD_REACTORS
330
42
102
}
330
42
100
AcDbScale
 70
     0
300
3/8" = 1'-0"
140
0.375
141
12.0
290
     0
  0
SCALE
  5
4D
102
{ACAD_REACTORS
330
42
102
}
330
42
100
AcDbScale
 70
     0
300
1/2" = 1'-0"
140
0.5
141
12.0
290
     0
  0
SCALE
  5
4E
102
{ACAD_REACTORS
330
42
102
}
330
42
100
AcDbScale
 70
     0
300
3/4" = 1'-0"
140
0.75
141
12.0
290
     0
  0
SCALE
  5
4F
102
{ACAD_REACTORS
330
42
102
}
330
42
100
AcDbScale
 70
     0
300
1" = 1'-0"
140
1.0
141
12.0
290
     0
  0
SCALE
  5
50
102
{ACAD_REACTORS
330
42
102
}
330
42
100
AcDbScale
 70
     0
300
1-1/2" = 1'-0"
140
1.5
141
12.0
290
     0
  0
SCALE
  5
51
102
{ACAD_REACTORS
330
42
102
}
330
42
100
AcDbScale
 70
     0
300
3" = 1'-0"
140
3.0
141
12.0
290
     0
  0
SCALE
  5
52
102
{ACAD_REACTORS
330
42
102
}
330
42
100
AcDbScale
 70
     0
300
6" = 1'-0"
140
6.0
141
12.0
290
     0
  0
SCALE
  5
53
102
{ACAD_REACTORS
330
42
102
}
330
42
100
AcDbScale
 70
     0
300
1'-0" = 1'-0"
140
12.0
141
12.0
290
     0
  0
ACDBSECTIONVIEWSTYLE
  5
69
102
{ACAD_REACTORS
330
68
102
}
330
68
100
AcDbModelDocViewStyle
 70
     0
  3
Imperial24
290
     1
300
Imperial24
 90
        0
100
AcDbSectionViewStyle
 70
     0
 71
     0
 90
       78
 71
     1
340
55
 62
   256
 40
0.24
340
0
340
0
 62
   256
 40
0.24
300
I, O, Q, S, X, Z
 40
0.48
 90
        3
 40
0.18
 90
        1
 71
     2
340
5D
 90
       25
 62
   256
340
5D
 90
       50
 62
   256
 40
0.24
 40
0.0
 40
0.24
 71
     3
340
55
 62
   256
 40
0.24
 90
        1
 40
0.75
 90
        1
300
%<\AcVar ViewType \f "%tc1">% %<\AcVar ViewSectionStartId>%-%<\AcVar ViewSectionEndId>%\PSCALE %<\AcVar ViewScale \f "%sn">%
 71
     4
 62
   256
 62
   257
300
ANSI31
 40
1.0
 90
        0
290
     0
290
     0
 90
        6
 40
0.0
 40
1.570796326794896
 40
0.2617993877991494
 40
1.308996938995747
 40
-0.2617993877991494
 40
1.832595714594046
  0
TABLESTYLE
  5
65
102
{ACAD_XDICTIONARY
360
22D
102
}
102
{ACAD_REACTORS
330
64
102
}
330
64
100
AcDbTableStyle
280
     0
  3
Standard
 70
     0
 71
     0
 40
0.06
 41
0.06
280
     0
281
     0
  7
Standard
140
0.18
170
     2
 62
     0
 63
     7
283
     0
 90
      512
 91
        0
  1

274
    -2
284
     1
 64
     0
275
    -2
285
     1
 65
     0
276
    -2
286
     1
 66
     0
277
    -2
287
     1
 67
     0
278
    -2
288
     1
 68
     0
279
    -2
289
     1
 69
     0
  7
Standard
140
0.25
170
     5
 62
     0
 63
     7
283
     0
 90
      512
 91
        0
  1

274
    -2
284
     1
 64
     0
275
    -2
285
     1
 65
     0
276
    -2
286
     1
 66
     0
277
    -2
287
     1
 67
     0
278
    -2
288
     1
 68
     0
279
    -2
289
     1
 69
     0
  7
Standard
140
0.18
170
     5
 62
     0
 63
     7
283
     0
 90
      512
 91
        0
  1

274
    -2
284
     1
 64
     0
275
    -2
285
     1
 65
     0
276
    -2
286
     1
 66
     0
277
    -2
287
     1
 67
     0
278
    -2
288
     1
 68
     0
279
    -2
289
     1
 69
     0
  0
VISUALSTYLE
  5
2F
102
{ACAD_REACTORS
330
29
102
}
330
29
100
AcDbVisualStyle
  2
2dWireframe
 70
     4
177
     3
291
     0
 70
    58
 90
        0
176
     1
 90
        2
176
     1
 90
        0
176
     1
 90
        0
176
     1
 40
0.6
176
     1
 40
30.0
176
     1
 62
     7
420
 16777215
176
     1
 90
        1
176
     1
 90
        4
176
     1
 62
     7
176
     1
 62
   257
176
     1
 90
        1
176
     1
 90
        1
176
     1
 40
1.0
176
     1
 90
        0
176
     1
 62
   257
176
     1
 40
1.0
176
     1
 90
        1
176
     1
 90
        6
176
     1
 90
        2
176
     1
 62
     7
176
     1
 90
        5
176
     1
 90
        0
176
     1
 90
        0
176
     1
290
     0
176
     1
 90
        1
176
     1
 40
0.0
176
     1
 90
        0
176
     1
290
     1
176
     1
290
     1
176
     1
290
     0
176
     1
290
     0
176
     1
290
     0
176
     1
290
     0
176
     1
290
     0
176
     1
290
     0
176
     1
290
     0
176
     1
 90
       50
176
     1
 40
0.0
176
     1
 40
1.0
176
     1
 90
        0
176
     1
 62
    18
420
        0
176
     1
 90
       50
176
     1
 90
        3
176
     1
 62
     5
420
      255
176
     1
290
     0
176
     1
 90
       50
176
     1
 90
       50
176
     1
 90
       50
176
     1
290
     0
176
     1
 90
       50
176
     1
 62
   256
176
     0
 40
1.0
176
     0
 90
        2
176
     1
  1
strokes_ogs.tif
176
     1
290
     0
176
     1
 40
1.0
176
     1
 40
1.0
176
     1
  0
VISUALSTYLE
  5
2E
102
{ACAD_REACTORS
330
29
102
}
330
29
100
AcDbVisualStyle
  2
Basic
 70
     7
177
     3
291
     1
 70
    58
 90
        1
176
     1
 90
        0
176
     1
 90
        1
176
     1
 90
        0
176
     1
 40
0.6
176
     1
 40
30.0
176
     1
 62
     7
420
 16777215
176
     1
 90
        0
176
     1
 90
        4
176
     1
 62
     7
176
     1
 62
   257
176
     1
 90
        1
176
     1
 90
        1
176
     1
 40
1.0
176
     1
 90
        8
176
     1
 62
     7
176
     1
 40
1.0
176
     1
 90
        1
176
     1
 90
        6
176
     1
 90
        2
176
     1
 62
     7
176
     1
 90
        5
176
     1
 90
        0
176
     1
 90
        0
176
     1
290
     0
176
     1
 90
        1
176
     1
 40
0.0
176
     1
 90
        0
176
     1
290
     0
176
     1
290
     1
176
     1
290
     1
176
     1
290
     0
176
     1
290
     0
176
     1
290
     0
176
     1
290
     0
176
     1
290
     0
176
     1
290
     0
176
     1
 90
       50
176
     1
 40
0.0
176
     1
 40
1.0
176
     1
 90
        0
176
     1
 62
    18
420
        0
176
     1
 90
       50
176
     1
 90
        3
176
     1
 62
     5
420
      255
176
     1
290
     0
176
     1
 90
       50
176
     1
 90
       50
176
     1
 90
       50
176
     1
290
     0
176
     1
 90
       50
176
     1
 62
   256
176
     0
 40
1.0
176
     0
 90
        2
176
     1
  1
strokes_ogs.tif
176
     1
290
     0
176
     1
 40
1.0
176
     1
 40
1.0
176
     1
  0
VISUALSTYLE
  5
35
102
{ACAD_REACTORS
330
29
102
}
330
29
100
AcDbVisualStyle
  2
Brighten
 70
    12
177
     3
291
     1
 70
    58
 90
        2
176
     1
 90
        2
176
     1
 90
        0
176
     1
 90
        0
176
     1
 40
0.6
176
     1
 40
30.0
176
     1
 62
     7
420
 16777215
176
     1
 90
        1
176
     1
 90
        4
176
     1
 62
     7
176
     1
 62
   257
176
     1
 90
        1
176
     1
 90
        1
176
     1
 40
1.0
176
     1
 90
        8
176
     1
 62
     7
176
     1
 40
1.0
176
     1
 90
        1
176
     1
 90
        6
176
     1
 90
        2
176
     1
 62
     7
176
     1
 90
        5
176
     1
 90
        0
176
     1
 90
        0
176
     1
290
     0
176
     1
 90
        1
176
     1
 40
50.0
176
     1
 90
        0
176
     1
290
     0
176
     1
290
     1
176
     1
290
     1
176
     1
290
     0
176
     1
290
     0
176
     1
290
     0
176
     1
290
     0
176
     1
290
     0
176
     1
290
     0
176
     1
 90
       50
176
     1
 40
0.0
176
     1
 40
1.0
176
     1
 90
        0
176
     1
 62
    18
420
        0
176
     1
 90
       50
176
     1
 90
        3
176
     1
 62
     5
420
      255
176
     1
290
     0
176
     1
 90
       50
176
     1
 90
       50
176
     1
 90
       50
176
     1
290
     0
176
     1
 90
       50
176
     1
 62
   256
176
     0
 40
1.0
176
     0
 90
        2
176
     1
  1
strokes_ogs.tif
176
     1
290
     0
176
     1
 40
1.0
176
     1
 40
1.0
176
     1
  0
VISUALSTYLE
  5
39
102
{ACAD_REACTORS
330
29
102
}
330
29
100
AcDbVisualStyle
  2
ColorChange
 70
    16
177
     3
291
     1
 70
    58
 90
        2
176
     1
 90
        2
176
     1
 90
        3
176
     1
 90
        0
176
     1
 40
0.6
176
     1
 40
30.0
176
     1
 62
     8
420
  8421504
176
     1
 90
        1
176
     1
 90
        4
176
     1
 62
     7
176
     1
 62
   257
176
     1
 90
        1
176
     1
 90
        1
176
     1
 40
1.0
176
     1
 90
        8
176
     1
 62
     8
420
  8421504
176
     1
 40
1.0
176
     1
 90
        1
176
     1
 90
        6
176
     1
 90
        2
176
     1
 62
     7
176
     1
 90
        5
176
     1
 90
        0
176
     1
 90
        0
176
     1
290
     0
176
     1
 90
        1
176
     1
 40
0.0
176
     1
 90
        0
176
     1
290
     0
176
     1
290
     1
176
     1
290
     1
176
     1
290
     0
176
     1
290
     0
176
     1
290
     0
176
     1
290
     0
176
     1
290
     0
176
     1
290
     0
176
     1
 90
       50
176
     1
 40
0.0
176
     1
 40
1.0
176
     1
 90
        0
176
     1
 62
    18
420
        0
176
     1
 90
       50
176
     1
 90
        3
176
     1
 62
     5
420
      255
176
     1
290
     0
176
     1
 90
       50
176
     1
 90
       50
176
     1
 90
       50
176
     1
290
     0
176
     1
 90
       50
176
     1
 62
   256
176
     0
 40
1.0
176
     0
 90
        2
176
     1
  1
strokes_ogs.tif
176
     1
290
     0
176
     1
 40
1.0
176
     1
 40
1.0
176
     1
  0
VISUALSTYLE
  5
32
102
{ACAD_REACTORS
330
29
102
}
330
29
100
AcDbVisualStyle
  2
Conceptual
 70
     9
177
     3
291
     0
 70
    58
 90
        3
176
     1
 90
        2
176
     1
 90
        0
176
     1
 90
        0
176
     1
 40
0.6
176
     1
 40
30.0
176
     1
 62
     7
420
 16777215
176
     1
 90
        2
176
     1
 90
        2
176
     1
 62
     7
176
     1
 62
   257
176
     1
 90
        1
176
     1
 90
        1
176
     1
 40
179.0
176
     1
 90
        8
176
     1
 62
     7
176
     1
 40
1.0
176
     1
 90
        1
176
     1
 90
        6
176
     1
 90
        2
176
     1
 62
     7
176
     1
 90
        3
176
     1
 90
        0
176
     1
 90
        0
176
     1
290
     0
176
     1
 90
        1
176
     1
 40
0.0
176
     1
 90
        0
176
     1
290
     0
176
     1
290
     1
176
     1
290
     1
176
     1
290
     0
176
     1
290
     0
176
     1
290
     0
176
     1
290
     0
176
     1
290
     0
176
     1
290
     0
176
     1
 90
       50
176
     1
 40
0.0
176
     1
 40
1.0
176
     1
 90
        0
176
     1
 62
    18
420
        0
176
     1
 90
       50
176
     1
 90
        3
176
     1
 62
     5
420
      255
176
     1
290
     0
176
     1
 90
       50
176
     1
 90
       50
176
     1
 90
       50
176
     1
290
     0
176
     1
 90
       50
176
     1
 62
   256
176
     0
 40
1.0
176
     0
 90
        2
176
     1
  1
strokes_ogs.tif
176
     1
290
     0
176
     1
 40
1.0
176
     1
 40
1.0
176
     1
  0
VISUALSTYLE
  5
34
102
{ACAD_REACTORS
330
29
102
}
330
29
100
AcDbVisualStyle
  2
Dim
 70
    11
177
     3
291
     1
 70
    58
 90
        2
176
     1
 90
        2
176
     1
 90
        0
176
     1
 90
        0
176
     1
 40
0.6
176
     1
 40
30.0
176
     1
 62
     7
420
 16777215
176
     1
 90
        1
176
     1
 90
        4
176
     1
 62
     7
176
     1
 62
   257
176
     1
 90
        1
176
     1
 90
        1
176
     1
 40
1.0
176
     1
 90
        8
176
     1
 62
     7
176
     1
 40
1.0
176
     1
 90
        1
176
     1
 90
        6
176
     1
 90
        2
176
     1
 62
     7
176
     1
 90
        5
176
     1
 90
        0
176
     1
 90
        0
176
     1
290
     0
176
     1
 90
        1
176
     1
 40
-50.0
176
     1
 90
        0
176
     1
290
     0
176
     1
290
     1
176
     1
290
     1
176
     1
290
     0
176
     1
290
     0
176
     1
290
     0
176
     1
290
     0
176
     1
290
     0
176
     1
290
     0
176
     1
 90
       50
176
     1
 40
0.0
176
     1
 40
1.0
176
     1
 90
        0
176
     1
 62
    18
420
        0
176
     1
 90
       50
176
     1
 90
        3
176
     1
 62
     5
420
      255
176
     1
290
     0
176
     1
 90
       50
176
     1
 90
       50
176
     1
 90
       50
176
     1
290
     0
176
     1
 90
       50
176
     1
 62
   256
176
     0
 40
1.0
176
     0
 90
        2
176
     1
  1
strokes_ogs.tif
176
     1
290
     0
176
     1
 40
1.0
176
     1
 40
1.0
176
     1
  0
VISUALSTYLE
  5
41
102
{ACAD_REACTORS
330
29
102
}
330
29
100
AcDbVisualStyle
  2
EdgeColorOff
 70
    22
177
     3
291
     1
 70
    58
 90
        2
176
     0
 90
        2
176
     0
 90
        0
176
     0
 90
        0
176
     0
 40
0.6
176
     0
 40
30.0
176
     0
 62
     7
420
 16777215
176
     0
 90
        1
176
     0
 90
        4
176
     0
 62
     7
176
     0
 62
   257
176
     0
 90
        1
176
     0
 90
        1
176
     0
 40
1.0
176
     0
 90
        8
176
     2
 62
     7
176
     0
 40
1.0
176
     0
 90
        1
176
     0
 90
        6
176
     0
 90
        2
176
     0
 62
     7
176
     0
 90
        5
176
     0
 90
        0
176
     0
 90
        0
176
     0
290
     0
176
     0
 90
        1
176
     0
 40
0.0
176
     0
 90
        0
176
     0
290
     0
176
     0
290
     1
176
     0
290
     1
176
     0
290
     0
176
     0
290
     0
176
     0
290
     0
176
     0
290
     0
176
     0
290
     0
176
     0
290
     0
176
     0
 90
       50
176
     0
 40
0.0
176
     0
 40
1.0
176
     0
 90
        0
176
     0
 62
    18
420
        0
176
     0
 90
       50
176
     0
 90
        3
176
     0
 62
     5
420
      255
176
     0
290
     0
176
     0
 90
       50
176
     0
 90
       50
176
     0
 90
       50
176
     0
290
     0
176
     0
 90
       50
176
     0
 62
   256
176
     0
 40
1.0
176
     0
 90
        2
176
     0
  1
strokes_ogs.tif
176
     0
290
     0
176
     0
 40
1.0
176
     0
 40
1.0
176
     0
  0
VISUALSTYLE
  5
38
102
{ACAD_REACTORS
330
29
102
}
330
29
100
AcDbVisualStyle
  2
Facepattern
 70
    15
177
     3
291
     1
 70
    58
 90
        2
176
     1
 90
        2
176
     1
 90
        0
176
     1
 90
        0
176
     1
 40
0.6
176
     1
 40
30.0
176
     1
 62
     7
420
 16777215
176
     1
 90
        1
176
     1
 90
        4
176
     1
 62
     7
176
     1
 62
   257
176
     1
 90
        1
176
     1
 90
        1
176
     1
 40
1.0
176
     1
 90
        8
176
     1
 62
     7
176
     1
 40
1.0
176
     1
 90
        1
176
     1
 90
        6
176
     1
 90
        2
176
     1
 62
     7
176
     1
 90
        5
176
     1
 90
        0
176
     1
 90
        0
176
     1
290
     0
176
     1
 90
        1
176
     1
 40
0.0
176
     1
 90
        0
176
     1
290
     0
176
     1
290
     1
176
     1
290
     1
176
     1
290
     0
176
     1
290
     0
176
     1
290
     0
176
     1
290
     0
176
     1
290
     0
176
     1
290
     0
176
     1
 90
       50
176
     1
 40
0.0
176
     1
 40
1.0
176
     1
 90
        0
176
     1
 62
    18
420
        0
176
     1
 90
       50
176
     1
 90
        3
176
     1
 62
     5
420
      255
176
     1
290
     0
176
     1
 90
       50
176
     1
 90
       50
176
     1
 90
       50
176
     1
290
     0
176
     1
 90
       50
176
     1
 62
   256
176
     0
 40
1.0
176
     0
 90
        2
176
     1
  1
strokes_ogs.tif
176
     1
290
     0
176
     1
 40
1.0
176
     1
 40
1.0
176
     1
  0
VISUALSTYLE
  5
2A
102
{ACAD_REACTORS
330
29
102
}
330
29
100
AcDbVisualStyle
  2
Flat
 70
     0
177
     3
291
     1
 70
    58
 90
        2
176
     1
 90
        1
176
     1
 90
        1
176
     1
 90
        2
176
     1
 40
0.6
176
     1
 40
30.0
176
     1
 62
     7
420
 16777215
176
     1
 90
        0
176
     1
 90
        0
176
     1
 62
     7
176
     1
 62
   257
176
     1
 90
        1
176
     1
 90
        1
176
     1
 40
1.0
176
     1
 90
        8
176
     1
 62
     7
176
     1
 40
1.0
176
     1
 90
        1
176
     1
 90
        6
176
     1
 90
        2
176
     1
 62
     7
176
     1
 90
        5
176
     1
 90
        0
176
     1
 90
        0
176
     1
290
     0
176
     1
 90
       13
176
     1
 40
0.0
176
     1
 90
        0
176
     1
290
     0
176
     1
290
     1
176
     1
290
     1
176
     1
290
     0
176
     1
290
     0
176
     1
290
     0
176
     1
290
     0
176
     1
290
     0
176
     1
290
     0
176
     1
 90
       50
176
     1
 40
0.0
176
     1
 40
1.0
176
     1
 90
        0
176
     1
 62
    18
420
        0
176
     1
 90
       50
176
     1
 90
        3
176
     1
 62
     5
420
      255
176
     1
290
     0
176
     1
 90
       50
176
     1
 90
       50
176
     1
 90
       50
176
     1
290
     0
176
     1
 90
       50
176
     1
 62
   256
176
     0
 40
1.0
176
     0
 90
        2
176
     1
  1
strokes_ogs.tif
176
     1
290
     0
176
     1
 40
1.0
176
     1
 40
1.0
176
     1
  0
VISUALSTYLE
  5
2B
102
{ACAD_REACTORS
330
29
102
}
330
29
100
AcDbVisualStyle
  2
FlatWithEdges
 70
     1
177
     3
291
     1
 70
    58
 90
        2
176
     1
 90
        1
176
     1
 90
        1
176
     1
 90
        2
176
     1
 40
0.6
176
     1
 40
30.0
176
     1
 62
     7
420
 16777215
176
     1
 90
        1
176
     1
 90
        0
176
     1
 62
     7
176
     1
 62
   257
176
     1
 90
        1
176
     1
 90
        1
176
     1
 40
1.0
176
     1
 90
        0
176
     1
 62
   257
176
     1
 40
1.0
176
     1
 90
        1
176
     1
 90
        6
176
     1
 90
        2
176
     1
 62
     7
176
     1
 90
        5
176
     1
 90
        0
176
     1
 90
        0
176
     1
290
     0
176
     1
 90
       13
176
     1
 40
0.0
176
     1
 90
        0
176
     1
290
     0
176
     1
290
     1
176
     1
290
     1
176
     1
290
     0
176
     1
290
     0
176
     1
290
     0
176
     1
290
     0
176
     1
290
     0
176
     1
290
     0
176
     1
 90
       50
176
     1
 40
0.0
176
     1
 40
1.0
176
     1
 90
        0
176
     1
 62
    18
420
        0
176
     1
 90
       50
176
     1
 90
        3
176
     1
 62
     5
420
      255
176
     1
290
     0
176
     1
 90
       50
176
     1
 90
       50
176
     1
 90
       50
176
     1
290
     0
176
     1
 90
       50
176
     1
 62
   256
176
     0
 40
1.0
176
     0
 90
        2
176
     1
  1
strokes_ogs.tif
176
     1
290
     0
176
     1
 40
1.0
176
     1
 40
1.0
176
     1
  0
VISUALSTYLE
  5
2C
102
{ACAD_REACTORS
330
29
102
}
330
29
100
AcDbVisualStyle
  2
Gouraud
 70
     2
177
     3
291
     1
 70
    58
 90
        2
176
     1
 90
        2
176
     1
 90
        1
176
     1
 90
        2
176
     1
 40
0.6
176
     1
 40
30.0
176
     1
 62
     7
420
 16777215
176
     1
 90
        0
176
     1
 90
        0
176
     1
 62
     7
176
     1
 62
   257
176
     1
 90
        1
176
     1
 90
        1
176
     1
 40
1.0
176
     1
 90
        0
176
     1
 62
     7
176
     1
 40
1.0
176
     1
 90
        1
176
     1
 90
        6
176
     1
 90
        2
176
     1
 62
     7
176
     1
 90
        5
176
     1
 90
        0
176
     1
 90
        0
176
     1
290
     0
176
     1
 90
       13
176
     1
 40
0.0
176
     1
 90
        0
176
     1
290
     0
176
     1
290
     1
176
     1
290
     1
176
     1
290
     0
176
     1
290
     0
176
     1
290
     0
176
     1
290
     0
176
     1
290
     0
176
     1
290
     0
176
     1
 90
       50
176
     1
 40
0.0
176
     1
 40
1.0
176
     1
 90
        0
176
     1
 62
    18
420
        0
176
     1
 90
       50
176
     1
 90
        3
176
     1
 62
     5
420
      255
176
     1
290
     0
176
     1
 90
       50
176
     1
 90
       50
176
     1
 90
       50
176
     1
290
     0
176
     1
 90
       50
176
     1
 62
   256
176
     0
 40
1.0
176
     0
 90
        2
176
     1
  1
strokes_ogs.tif
176
     1
290
     0
176
     1
 40
1.0
176
     1
 40
1.0
176
     1
  0
VISUALSTYLE
  5
2D
102
{ACAD_REACTORS
330
29
102
}
330
29
100
AcDbVisualStyle
  2
GouraudWithEdges
 70
     3
177
     3
291
     1
 70
    58
 90
        2
176
     1
 90
        2
176
     1
 90
        1
176
     1
 90
        2
176
     1
 40
0.6
176
     1
 40
30.0
176
     1
 62
     7
420
 16777215
176
     1
 90
        1
176
     1
 90
        0
176
     1
 62
     7
176
     1
 62
   257
176
     1
 90
        1
176
     1
 90
        1
176
     1
 40
1.0
176
     1
 90
        0
176
     1
 62
   257
176
     1
 40
1.0
176
     1
 90
        1
176
     1
 90
        6
176
     1
 90
        2
176
     1
 62
     7
176
     1
 90
        5
176
     1
 90
        0
176
     1
 90
        0
176
     1
290
     0
176
     1
 90
       13
176
     1
 40
0.0
176
     1
 90
        0
176
     1
290
     0
176
     1
290
     1
176
     1
290
     1
176
     1
290
     0
176
     1
290
     0
176
     1
290
     0
176
     1
290
     0
176
     1
290
     0
176
     1
290
     0
176
     1
 90
       50
176
     1
 40
0.0
176
     1
 40
1.0
176
     1
 90
        0
176
     1
 62
    18
420
        0
176
     1
 90
       50
176
     1
 90
        3
176
     1
 62
     5
420
      255
176
     1
290
     0
176
     1
 90
       50
176
     1
 90
       50
176
     1
 90
       50
176
     1
290
     0
176
     1
 90
       50
176
     1
 62
   256
176
     0
 40
1.0
176
     0
 90
        2
176
     1
  1
strokes_ogs.tif
176
     1
290
     0
176
     1
 40
1.0
176
     1
 40
1.0
176
     1
  0
VISUALSTYLE
  5
31
102
{ACAD_REACTORS
330
29
102
}
330
29
100
AcDbVisualStyle
  2
Hidden
 70
     6
177
     3
291
     0
 70
    58
 90
        1
176
     1
 90
        2
176
     1
 90
        2
176
     1
 90
        0
176
     1
 40
0.6
176
     1
 40
30.0
176
     1
 62
     7
420
 16777215
176
     1
 90
        2
176
     1
 90
        2
176
     1
 62
     7
176
     1
 62
   257
176
     1
 90
        2
176
     1
 90
        1
176
     1
 40
40.0
176
     1
 90
        0
176
     1
 62
   257
176
     1
 40
1.0
176
     1
 90
        1
176
     1
 90
        6
176
     1
 90
        2
176
     1
 62
     7
176
     1
 90
        3
176
     1
 90
        0
176
     1
 90
        0
176
     1
290
     0
176
     1
 90
        1
176
     1
 40
0.0
176
     1
 90
        0
176
     1
290
     0
176
     1
290
     1
176
     1
290
     1
176
     1
290
     0
176
     1
290
     0
176
     1
290
     0
176
     1
290
     0
176
     1
290
     0
176
     1
290
     0
176
     1
 90
       50
176
     1
 40
0.0
176
     1
 40
1.0
176
     1
 90
        0
176
     1
 62
    18
420
        0
176
     1
 90
       50
176
     1
 90
        3
176
     1
 62
     5
420
      255
176
     1
290
     0
176
     1
 90
       50
176
     1
 90
       50
176
     1
 90
       50
176
     1
290
     0
176
     1
 90
       50
176
     1
 62
   256
176
     0
 40
1.0
176
     0
 90
        2
176
     1
  1
strokes_ogs.tif
176
     1
290
     0
176
     1
 40
1.0
176
     1
 40
1.0
176
     1
  0
VISUALSTYLE
  5
3F
102
{ACAD_REACTORS
330
29
102
}
330
29
100
AcDbVisualStyle
  2
JitterOff
 70
    20
177
     3
291
     1
 70
    58
 90
        2
176
     0
 90
        2
176
     0
 90
        0
176
     0
 90
        0
176
     0
 40
0.6
176
     0
 40
30.0
176
     0
 62
     7
420
 16777215
176
     0
 90
        1
176
     0
 90
        4
176
     0
 62
     7
176
     0
 62
   257
176
     0
 90
        1
176
     0
 90
        1
176
     0
 40
1.0
176
     0
 90
       10
176
     2
 62
     7
176
     0
 40
1.0
176
     0
 90
        1
176
     0
 90
        6
176
     0
 90
        2
176
     0
 62
     7
176
     0
 90
        5
176
     0
 90
        0
176
     0
 90
        0
176
     0
290
     0
176
     0
 90
        1
176
     0
 40
0.0
176
     0
 90
        0
176
     0
290
     0
176
     0
290
     1
176
     0
290
     1
176
     0
290
     0
176
     0
290
     0
176
     0
290
     0
176
     0
290
     0
176
     0
290
     0
176
     0
290
     0
176
     0
 90
       50
176
     0
 40
0.0
176
     0
 40
1.0
176
     0
 90
        0
176
     0
 62
    18
420
        0
176
     0
 90
       50
176
     0
 90
        3
176
     0
 62
     5
420
      255
176
     0
290
     0
176
     0
 90
       50
176
     0
 90
       50
176
     0
 90
       50
176
     0
290
     0
176
     0
 90
       50
176
     0
 62
   256
176
     0
 40
1.0
176
     0
 90
        2
176
     0
  1
strokes_ogs.tif
176
     0
290
     0
176
     0
 40
1.0
176
     0
 40
1.0
176
     0
  0
VISUALSTYLE
  5
37
102
{ACAD_REACTORS
330
29
102
}
330
29
100
AcDbVisualStyle
  2
Linepattern
 70
    14
177
     3
291
     1
 70
    58
 90
        2
176
     1
 90
        2
176
     1
 90
        0
176
     1
 90
        0
176
     1
 40
0.6
176
     1
 40
30.0
176
     1
 62
     7
420
 16777215
176
     1
 90
        1
176
     1
 90
        4
176
     1
 62
     7
176
     1
 62
   257
176
     1
 90
        7
176
     1
 90
        7
176
     1
 40
1.0
176
     1
 90
        8
176
     1
 62
     7
176
     1
 40
1.0
176
     1
 90
        1
176
     1
 90
        6
176
     1
 90
        2
176
     1
 62
     7
176
     1
 90
        5
176
     1
 90
        0
176
     1
 90
        0
176
     1
290
     0
176
     1
 90
        1
176
     1
 40
0.0
176
     1
 90
        0
176
     1
290
     0
176
     1
290
     1
176
     1
290
     1
176
     1
290
     0
176
     1
290
     0
176
     1
290
     0
176
     1
290
     0
176
     1
290
     0
176
     1
290
     0
176
     1
 90
       50
176
     1
 40
0.0
176
     1
 40
1.0
176
     1
 90
        0
176
     1
 62
    18
420
        0
176
     1
 90
       50
176
     1
 90
        3
176
     1
 62
     5
420
      255
176
     1
290
     0
176
     1
 90
       50
176
     1
 90
       50
176
     1
 90
       50
176
     1
290
     0
176
     1
 90
       50
176
     1
 62
   256
176
     0
 40
1.0
176
     0
 90
        2
176
     1
  1
strokes_ogs.tif
176
     1
290
     0
176
     1
 40
1.0
176
     1
 40
1.0
176
     1
  0
VISUALSTYLE
  5
40
102
{ACAD_REACTORS
330
29
102
}
330
29
100
AcDbVisualStyle
  2
OverhangOff
 70
    21
177
     3
291
     1
 70
    58
 90
        2
176
     0
 90
        2
176
     0
 90
        0
176
     0
 90
        0
176
     0
 40
0.6
176
     0
 40
30.0
176
     0
 62
     7
420
 16777215
176
     0
 90
        1
176
     0
 90
        4
176
     0
 62
     7
176
     0
 62
   257
176
     0
 90
        1
176
     0
 90
        1
176
     0
 40
1.0
176
     0
 90
        9
176
     2
 62
     7
176
     0
 40
1.0
176
     0
 90
        1
176
     0
 90
        6
176
     0
 90
        2
176
     0
 62
     7
176
     0
 90
        5
176
     0
 90
        0
176
     0
 90
        0
176
     0
290
     0
176
     0
 90
        1
176
     0
 40
0.0
176
     0
 90
        0
176
     0
290
     0
176
     0
290
     1
176
     0
290
     1
176
     0
290
     0
176
     0
290
     0
176
     0
290
     0
176
     0
290
     0
176
     0
290
     0
176
     0
290
     0
176
     0
 90
       50
176
     0
 40
0.0
176
     0
 40
1.0
176
     0
 90
        0
176
     0
 62
    18
420
        0
176
     0
 90
       50
176
     0
 90
        3
176
     0
 62
     5
420
      255
176
     0
290
     0
176
     0
 90
       50
176
     0
 90
       50
176
     0
 90
       50
176
     0
290
     0
176
     0
 90
       50
176
     0
 62
   256
176
     0
 40
1.0
176
     0
 90
        2
176
     0
  1
strokes_ogs.tif
176
     0
290
     0
176
     0
 40
1.0
176
     0
 40
1.0
176
     0
  0
VISUALSTYLE
  5
33
102
{ACAD_REACTORS
330
29
102
}
330
29
100
AcDbVisualStyle
  2
Realistic
 70
     8
177
     3
291
     0
 70
    58
 90
        2
176
     1
 90
        3
176
     1
 90
        0
176
     1
 90
        2
176
     1
 40
0.6
176
     1
 40
30.0
176
     1
 62
     7
420
 16777215
176
     1
 90
        0
176
     1
 90
        0
176
     1
 62
     7
176
     1
 62
   257
176
     1
 90
        1
176
     1
 90
        1
176
     1
 40
1.0
176
     1
 90
        8
176
     1
 62
   257
176
     1
 40
1.0
176
     1
 90
        1
176
     1
 90
        6
176
     1
 90
        2
176
     1
 62
     7
176
     1
 90
        3
176
     1
 90
        0
176
     1
 90
        0
176
     1
290
     0
176
     1
 90
       13
176
     1
 40
0.0
176
     1
 90
        0
176
     1
290
     0
176
     1
290
     1
176
     1
290
     1
176
     1
290
     0
176
     1
290
     0
176
     1
290
     0
176
     1
290
     0
176
     1
290
     0
176
     1
290
     0
176
     1
 90
       50
176
     1
 40
0.0
176
     1
 40
1.0
176
     1
 90
        0
176
     1
 62
    18
420
        0
176
     1
 90
       50
176
     1
 90
        3
176
     1
 62
     5
420
      255
176
     1
290
     0
176
     1
 90
       50
176
     1
 90
       50
176
     1
 90
       50
176
     1
290
     0
176
     1
 90
       50
176
     1
 62
   256
176
     0
 40
1.0
176
     0
 90
        2
176
     1
  1
strokes_ogs.tif
176
     1
290
     0
176
     1
 40
1.0
176
     1
 40
1.0
176
     1
  0
VISUALSTYLE
  5
3E
102
{ACAD_REACTORS
330
29
102
}
330
29
100
AcDbVisualStyle
  2
Shaded
 70
    27
177
     3
291
     0
 70
    58
 90
        2
176
     1
 90
        2
176
     1
 90
        1
176
     1
 90
        2
176
     1
 40
0.6
176
     1
 40
30.0
176
     1
 62
     7
420
 16777215
176
     1
 90
        0
176
     1
 90
        4
176
     1
 62
     7
176
     1
 62
   257
176
     1
 90
        1
176
     1
 90
        1
176
     1
 40
1.0
176
     1
 90
        8
176
     1
 62
   257
176
     1
 40
1.0
176
     1
 90
        1
176
     1
 90
        6
176
     1
 90
        2
176
     1
 62
     8
420
  7895160
176
     1
 90
        3
176
     1
 90
        0
176
     1
 90
        0
176
     1
290
     0
176
     1
 90
        5
176
     1
 40
0.0
176
     1
 90
        0
176
     1
290
     0
176
     1
290
     1
176
     1
290
     1
176
     1
290
     0
176
     1
290
     0
176
     1
290
     0
176
     1
290
     0
176
     1
290
     0
176
     1
290
     0
176
     1
 90
       50
176
     1
 40
0.0
176
     1
 40
1.0
176
     1
 90
        0
176
     1
 62
    18
420
        0
176
     1
 90
       50
176
     1
 90
        3
176
     1
 62
     5
420
      255
176
     1
290
     0
176
     1
 90
       50
176
     1
 90
       50
176
     1
 90
       50
176
     1
290
     0
176
     1
 90
       50
176
     1
 62
   256
176
     0
 40
1.0
176
     0
 90
        2
176
     1
  1
strokes_ogs.tif
176
     1
290
     0
176
     1
 40
1.0
176
     1
 40
1.0
176
     1
  0
VISUALSTYLE
  5
3D
102
{ACAD_REACTORS
330
29
102
}
330
29
100
AcDbVisualStyle
  2
Shaded with edges
 70
    26
177
     3
291
     0
 70
    58
 90
        2
176
     1
 90
        2
176
     1
 90
        1
176
     1
 90
        2
176
     1
 40
0.6
176
     1
 40
30.0
176
     1
 62
     7
420
 16777215
176
     1
 90
        1
176
     1
 90
        2
176
     1
 62
     7
176
     1
 62
   257
176
     1
 90
        2
176
     1
 90
        1
176
     1
 40
1.0
176
     1
 90
        8
176
     1
 62
   257
176
     1
 40
1.0
176
     1
 90
        1
176
     1
 90
        6
176
     1
 90
        2
176
     1
 62
     7
176
     1
 90
        3
176
     1
 90
        0
176
     1
 90
        0
176
     1
290
     0
176
     1
 90
        5
176
     1
 40
0.0
176
     1
 90
        0
176
     1
290
     0
176
     1
290
     1
176
     1
290
     1
176
     1
290
     0
176
     1
290
     0
176
     1
290
     0
176
     1
290
     0
176
     1
290
     0
176
     1
290
     0
176
     1
 90
       50
176
     1
 40
0.0
176
     1
 40
1.0
176
     1
 90
        0
176
     1
 62
    18
420
        0
176
     1
 90
       50
176
     1
 90
        3
176
     1
 62
     5
420
      255
176
     1
290
     0
176
     1
 90
       50
176
     1
 90
       50
176
     1
 90
       50
176
     1
290
     0
176
     1
 90
       50
176
     1
 62
   256
176
     0
 40
1.0
176
     0
 90
        2
176
     1
  1
strokes_ogs.tif
176
     1
290
     0
176
     1
 40
1.0
176
     1
 40
1.0
176
     1
  0
VISUALSTYLE
  5
3A
102
{ACAD_REACTORS
330
29
102
}
330
29
100
AcDbVisualStyle
  2
Shades of Gray
 70
    23
177
     3
291
     0
 70
    58
 90
        2
176
     1
 90
        2
176
     1
 90
        3
176
     1
 90
        0
176
     1
 40
0.6
176
     1
 40
30.0
176
     1
 62
     7
420
 16777215
176
     1
 90
        2
176
     1
 90
        2
176
     1
 62
     7
176
     1
 62
     7
176
     1
 90
        1
176
     1
 90
        1
176
     1
 40
40.0
176
     1
 90
        8
176
     1
 62
     7
176
     1
 40
1.0
176
     1
 90
        1
176
     1
 90
        6
176
     1
 90
        2
176
     1
 62
     7
176
     1
 90
        3
176
     1
 90
        0
176
     1
 90
        0
176
     1
290
     0
176
     1
 90
        1
176
     1
 40
0.0
176
     1
 90
        0
176
     1
290
     0
176
     1
290
     1
176
     1
290
     1
176
     1
290
     0
176
     1
290
     0
176
     1
290
     0
176
     1
290
     0
176
     1
290
     0
176
     1
290
     0
176
     1
 90
       50
176
     1
 40
0.0
176
     1
 40
1.0
176
     1
 90
        0
176
     1
 62
    18
420
        0
176
     1
 90
       50
176
     1
 90
        3
176
     1
 62
     5
420
      255
176
     1
290
     0
176
     1
 90
       50
176
     1
 90
       50
176
     1
 90
       50
176
     1
290
     0
176
     1
 90
       50
176
     1
 62
   256
176
     0
 40
1.0
176
     0
 90
        2
176
     1
  1
strokes_ogs.tif
176
     1
290
     0
176
     1
 40
1.0
176
     1
 40
1.0
176
     1
  0
VISUALSTYLE
  5
3B
102
{ACAD_REACTORS
330
29
102
}
330
29
100
AcDbVisualStyle
  2
Sketchy
 70
    24
177
     3
291
     0
 70
    58
 90
        1
176
     1
 90
        2
176
     1
 90
        2
176
     1
 90
        0
176
     1
 40
0.6
176
     1
 40
30.0
176
     1
 62
     7
420
 16777215
176
     1
 90
        2
176
     1
 90
        2
176
     1
 62
     7
176
     1
 62
     7
176
     1
 90
        1
176
     1
 90
        1
176
     1
 40
40.0
176
     1
 90
       11
176
     1
 62
     7
176
     1
 40
1.0
176
     1
 90
        1
176
     1
 90
        6
176
     1
 90
        2
176
     1
 62
     7
176
     1
 90
        6
176
     1
 90
        0
176
     1
 90
        0
176
     1
290
     0
176
     1
 90
        1
176
     1
 40
0.0
176
     1
 90
        0
176
     1
290
     0
176
     1
290
     1
176
     1
290
     1
176
     1
290
     0
176
     1
290
     0
176
     1
290
     0
176
     1
290
     0
176
     1
290
     0
176
     1
290
     0
176
     1
 90
       50
176
     1
 40
0.0
176
     1
 40
1.0
176
     1
 90
        0
176
     1
 62
    18
420
        0
176
     1
 90
       50
176
     1
 90
        3
176
     1
 62
     5
420
      255
176
     1
290
     0
176
     1
 90
       50
176
     1
 90
       50
176
     1
 90
       50
176
     1
290
     0
176
     1
 90
       50
176
     1
 62
   256
176
     0
 40
1.0
176
     0
 90
        2
176
     1
  1
strokes_ogs.tif
176
     1
290
     0
176
     1
 40
1.0
176
     1
 40
1.0
176
     1
  0
VISUALSTYLE
  5
36
102
{ACAD_REACTORS
330
29
102
}
330
29
100
AcDbVisualStyle
  2
Thicken
 70
    13
177
     3
291
     1
 70
    58
 90
        2
176
     1
 90
        2
176
     1
 90
        0
176
     1
 90
        0
176
     1
 40
0.6
176
     1
 40
30.0
176
     1
 62
     7
420
 16777215
176
     1
 90
        1
176
     1
 90
        4
176
     1
 62
     7
176
     1
 62
   257
176
     1
 90
        1
176
     1
 90
        1
176
     1
 40
1.0
176
     1
 90
       12
176
     1
 62
     7
176
     1
 40
1.0
176
     1
 90
        1
176
     1
 90
        6
176
     1
 90
        2
176
     1
 62
     7
176
     1
 90
        5
176
     1
 90
        0
176
     1
 90
        0
176
     1
290
     0
176
     1
 90
        1
176
     1
 40
0.0
176
     1
 90
        0
176
     1
290
     0
176
     1
290
     1
176
     1
290
     1
176
     1
290
     0
176
     1
290
     0
176
     1
290
     0
176
     1
290
     0
176
     1
290
     0
176
     1
290
     0
176
     1
 90
       50
176
     1
 40
0.0
176
     1
 40
1.0
176
     1
 90
        0
176
     1
 62
    18
420
        0
176
     1
 90
       50
176
     1
 90
        3
176
     1
 62
     5
420
      255
176
     1
290
     0
176
     1
 90
       50
176
     1
 90
       50
176
     1
 90
       50
176
     1
290
     0
176
     1
 90
       50
176
     1
 62
   256
176
     0
 40
1.0
176
     0
 90
        2
176
     1
  1
strokes_ogs.tif
176
     1
290
     0
176
     1
 40
1.0
176
     1
 40
1.0
176
     1
  0
VISUALSTYLE
  5
30
102
{ACAD_REACTORS
330
29
102
}
330
29
100
AcDbVisualStyle
  2
Wireframe
 70
     5
177
     3
291
     0
 70
    58
 90
        0
176
     1
 90
        2
176
     1
 90
        0
176
     1
 90
        0
176
     1
 40
0.6
176
     1
 40
30.0
176
     1
 62
     7
420
 16777215
176
     1
 90
        1
176
     1
 90
        4
176
     1
 62
     7
176
     1
 62
   257
176
     1
 90
        1
176
     1
 90
        1
176
     1
 40
1.0
176
     1
 90
        0
176
     1
 62
   257
176
     1
 40
1.0
176
     1
 90
        1
176
     1
 90
        6
176
     1
 90
        2
176
     1
 62
     7
176
     1
 90
        3
176
     1
 90
        0
176
     1
 90
        0
176
     1
290
     0
176
     1
 90
        1
176
     1
 40
0.0
176
     1
 90
        0
176
     1
290
     0
176
     1
290
     1
176
     1
290
     1
176
     1
290
     0
176
     1
290
     0
176
     1
290
     0
176
     1
290
     0
176
     1
290
     0
176
     1
290
     0
176
     1
 90
       50
176
     1
 40
0.0
176
     1
 40
1.0
176
     1
 90
        0
176
     1
 62
    18
420
        0
176
     1
 90
       50
176
     1
 90
        3
176
     1
 62
     5
420
      255
176
     1
290
     0
176
     1
 90
       50
176
     1
 90
       50
176
     1
 90
       50
176
     1
290
     0
176
     1
 90
       50
176
     1
 62
   256
176
     0
 40
1.0
176
     0
 90
        2
176
     1
  1
strokes_ogs.tif
176
     1
290
     0
176
     1
 40
1.0
176
     1
 40
1.0
176
     1
  0
VISUALSTYLE
  5
3C
102
{ACAD_REACTORS
330
29
102
}
330
29
100
AcDbVisualStyle
  2
X-Ray
 70
    25
177
     3
291
     0
 70
    58
 90
        2
176
     1
 90
        2
176
     1
 90
        1
176
     1
 90
        1
176
     1
 40
0.5
176
     1
 40
30.0
176
     1
 62
     7
420
 16777215
176
     1
 90
        1
176
     1
 90
        0
176
     1
 62
     7
176
     1
 62
   257
176
     1
 90
        1
176
     1
 90
        1
176
     1
 40
1.0
176
     1
 90
        8
176
     1
 62
     7
176
     1
 40
1.0
176
     1
 90
        1
176
     1
 90
        6
176
     1
 90
        2
176
     1
 62
     7
176
     1
 90
        3
176
     1
 90
        0
176
     1
 90
        0
176
     1
290
     0
176
     1
 90
       13
176
     1
 40
0.0
176
     1
 90
        0
176
     1
290
     0
176
     1
290
     1
176
     1
290
     1
176
     1
290
     0
176
     1
290
     0
176
     1
290
     0
176
     1
290
     0
176
     1
290
     0
176
     1
290
     0
176
     1
 90
       50
176
     1
 40
0.0
176
     1
 40
1.0
176
     1
 90
        0
176
     1
 62
    18
420
        0
176
     1
 90
       50
176
     1
 90
        3
176
     1
 62
     5
420
      255
176
     1
290
     0
176
     1
 90
       50
176
     1
 90
       50
176
     1
 90
       50
176
     1
290
     0
176
     1
 90
       50
176
     1
 62
   256
176
     0
 40
1.0
176
     0
 90
        2
176
     1
  1
strokes_ogs.tif
176
     1
290
     0
176
     1
 40
1.0
176
     1
 40
1.0
176
     1
  0
DICTIONARYVAR
  5
22C
102
{ACAD_REACTORS
330
227
102
}
330
227
100
DictionaryVariables
280
     0
  1
1:1
  0
DICTIONARYVAR
  5
229
102
{ACAD_REACTORS
330
227
102
}
330
227
100
DictionaryVariables
280
     0
  1
STANDARD
  0
DICTIONARYVAR
  5
228
102
{ACAD_REACTORS
330
227
102
}
330
227
100
DictionaryVariables
280
     0
  1
STANDARD
  0
DICTIONARYVAR
  5
22A
102
{ACAD_REACTORS
330
227
102
}
330
227
100
DictionaryVariables
280
     0
  1
Imperial24
  0
DICTIONARYVAR
  5
22B
102
{ACAD_REACTORS
330
227
102
}
330
227
100
DictionaryVariables
280
     0
  1
Imperial24
  0
DICTIONARY
  5
1A
330
19
100
AcDbDictionary
280
     1
281
     1
  3
BUMPTILE
360
1C
  3
DIFFUSETILE
360
1B
  3
OPACITYTILE
360
1F
  3
REFLECTIONTILE
360
1E
  3
REFRACTIONTILE
360
20
  3
SPECULARTILE
360
1D
  0
DICTIONARY
  5
12
330
11
100
AcDbDictionary
280
     1
281
     1
  3
BUMPTILE
360
14
  3
DIFFUSETILE
360
13
  3
OPACITYTILE
360
17
  3
REFLECTIONTILE
360
16
  3
REFRACTIONTILE
360
18
  3
SPECULARTILE
360
15
  0
DICTIONARY
  5
22
330
21
100
AcDbDictionary
280
     1
281
     1
  3
BUMPTILE
360
24
  3
DIFFUSETILE
360
23
  3
OPACITYTILE
360
27
  3
REFLECTIONTILE
360
26
  3
REFRACTIONTILE
360
28
  3
SPECULARTILE
360
25
  0
DICTIONARY
  5
22D
330
65
100
AcDbDictionary
280
     1
281
     1
  3
ACAD_ROUNDTRIP_2008_TABLESTYLE_CELLSTYLEMAP
360
22E
  0
XRECORD
  5
1C
102
{ACAD_REACTORS
330
1A
102
}
330
1A
100
AcDbXrecord
280
     1
270
     1
271
     1
  0
XRECORD
  5
1B
102
{ACAD_REACTORS
330
1A
102
}
330
1A
100
AcDbXrecord
280
     1
270
     1
271
     1
  0
XRECORD
  5
1F
102
{ACAD_REACTORS
330
1A
102
}
330
1A
100
AcDbXrecord
280
     1
270
     1
271
     1
  0
XRECORD
  5
1E
102
{ACAD_REACTORS
330
1A
102
}
330
1A
100
AcDbXrecord
280
     1
270
     1
271
     1
  0
XRECORD
  5
20
102
{ACAD_REACTORS
330
1A
102
}
330
1A
100
AcDbXrecord
280
     1
270
     1
271
     1
  0
XRECORD
  5
1D
102
{ACAD_REACTORS
330
1A
102
}
330
1A
100
AcDbXrecord
280
     1
270
     1
271
     1
  0
XRECORD
  5
14
102
{ACAD_REACTORS
330
12
102
}
330
12
100
AcDbXrecord
280
     1
270
     1
271
     1
  0
XRECORD
  5
13
102
{ACAD_REACTORS
330
12
102
}
330
12
100
AcDbXrecord
280
     1
270
     1
271
     1
  0
XRECORD
  5
17
102
{ACAD_REACTORS
330
12
102
}
330
12
100
AcDbXrecord
280
     1
270
     1
271
     1
  0
XRECORD
  5
16
102
{ACAD_REACTORS
330
12
102
}
330
12
100
AcDbXrecord
280
     1
270
     1
271
     1
  0
XRECORD
  5
18
102
{ACAD_REACTORS
330
12
102
}
330
12
100
AcDbXrecord
280
     1
270
     1
271
     1
  0
XRECORD
  5
15
102
{ACAD_REACTORS
330
12
102
}
330
12
100
AcDbXrecord
280
     1
270
     1
271
     1
  0
XRECORD
  5
24
102
{ACAD_REACTORS
330
22
102
}
330
22
100
AcDbXrecord
280
     1
270
     1
271
     1
  0
XRECORD
  5
23
102
{ACAD_REACTORS
330
22
102
}
330
22
100
AcDbXrecord
280
     1
270
     1
271
     1
  0
XRECORD
  5
27
102
{ACAD_REACTORS
330
22
102
}
330
22
100
AcDbXrecord
280
     1
270
     1
271
     1
  0
XRECORD
  5
26
102
{ACAD_REACTORS
330
22
102
}
330
22
100
AcDbXrecord
280
     1
270
     1
271
     1
  0
XRECORD
  5
28
102
{ACAD_REACTORS
330
22
102
}
330
22
100
AcDbXrecord
280
     1
270
     1
271
     1
  0
XRECORD
  5
25
102
{ACAD_REACTORS
330
22
102
}
330
22
100
AcDbXrecord
280
     1
270
     1
271
     1
  0
CELLSTYLEMAP
  5
22E
102
{ACAD_REACTORS
330
22D
102
}
330
22D
100
AcDbCellStyleMap
 90
        3
300
CELLSTYLE
  1
TABLEFORMAT_BEGIN
 90
        5
170
     1
 91
        0
 92
    32768
 62
   257
 93
        1
300
CONTENTFORMAT
  1
CONTENTFORMAT_BEGIN
 90
        0
 91
        0
 92
      512
 93
        0
300

 40
0.0
140
1.0
 94
        5
 62
     0
340
55
144
0.25
309
CONTENTFORMAT_END
171
     0
 94
        0
309
TABLEFORMAT_END
  1
CELLSTYLE_BEGIN
 90
        1
 91
        1
300
_TITLE
309
CELLSTYLE_END
300
CELLSTYLE
  1
TABLEFORMAT_BEGIN
 90
        5
170
     1
 91
        0
 92
        0
 62
   257
 93
        1
300
CONTENTFORMAT
  1
CONTENTFORMAT_BEGIN
 90
        0
 91
        0
 92
      512
 93
        0
300

 40
0.0
140
1.0
 94
        5
 62
     0
340
55
144
0.18
309
CONTENTFORMAT_END
171
     0
 94
        0
309
TABLEFORMAT_END
  1
CELLSTYLE_BEGIN
 90
        2
 91
        1
300
_HEADER
309
CELLSTYLE_END
300
CELLSTYLE
  1
TABLEFORMAT_BEGIN
 90
        5
170
     1
 91
        0
 92
        0
 62
   257
 93
        1
300
CONTENTFORMAT
  1
CONTENTFORMAT_BEGIN
 90
        0
 91
        0
 92
      512
 93
        0
300

 40
0.0
140
1.0
 94
        2
 62
     0
340
55
144
0.18
309
CONTENTFORMAT_END
171
     0
 94
        0
309
TABLEFORMAT_END
  1
CELLSTYLE_BEGIN
 90
        3
 91
        2
300
_DATA
309
CELLSTYLE_END
  0
ENDSEC
  0
EOF
